PrimaNota.ru - самый крупный в мире бесплатный архив песенных текстов, аккордов, табулатур и нот


The Verve - Major Force - бас-таба, видео

Регистрация Запомнить меня
Войти через:  Facebook Google Twitter Vk Yandex Mail.ru

The Verve - Major Force - бас-таба, видео

Печатать
Просмотров: 130
-The Verve
-Major Force
Tabs del intro 99.99% correcto


  00:00                          0:06
G------------------------------------|
D-------------5----------75----------|
A-----57--57---57----57----7-5-7-7---|
E-0-00--00--00---0000--00------------|


                                 0:12
G------------------------------------|
D-------------5--------------75------|
A-----57--57---57----57--57----7-57--|
E-0-00--00--00---0000--00--00--------|


                                 0:18
G------------------------------------|
D-------------5------75--75----------|
A-----57--57---57------7---7-5-7-5-7-|
E-0-00--00--00---0000----------------|

por xyloto, coldplayerhalo@yahoo.com
Добавлено: 25.11.2013
Другие материалы по этой песне:
  • Аккорды и текст

Страница создана 25.11.2013
http://primanota.ru/the-verve/major-force-chords.htm
Привет, Гость.
Предлагаем пройти революционный курс по гитаре.
Подарок от PrimaNota.Ru, забирай!