PrimaNota.ru - самый крупный в мире бесплатный архив песенных текстов, аккордов, табулатур и нот


The Verve - All in the Mind - текст песни, таба, видео

Регистрация Запомнить меня
Войти через:  Facebook Google Twitter Vk Yandex Mail.ru

The Verve - All in the Mind - текст песни, таба, видео

Печатать
Просмотров: 135
Уроки эстрадного вокала в Санкт-Петербурге
Bend string
------------------------------------------------------------------------|
------------------------------------------------------------------------|
6/-\-/-\-/-\---------------5-----------------------5--7-----------------|
------------------7--5--7-----7--5--7-----7--5--7--------5--7-----7-----|
---------------0-----------------------0-----------------------0--------|
------------------------------------------------------------------------|

				    So I got in the car...   You got the money..
                                             Slide down
-------------------------------------------------------------23\-\-\-\--|
----------------------------------------------10\6----------------------|
------5-------------------7^--7-----7--5h7p5----------------------------|
5--7-----7--5--7-------5------------------------------------------------|
------------------5/7-------------------------------12\0----------------|
------------------------------------------------------------------------|


                        Five years later on...
------------------------------------------------------------------------|
--------8-------7-------5-----------------------------------------------|
---7/8-----8\7-----7\5----------------------------------5---------------|
------------------------------5h7--5h7-----5h7-----5h7-----7--7--7------|
---------------------------0--------------------0-----------------------|
------------------------------------------------------------------------|


    You were born to...
------------------------------------------------------------------------|
------------------------------------------------------------------------|
----------12/14---------12/14--14p12---------14p12---------14p12--------|
7--12/14---------12/14----------------14p12---------14p12---------14----|
------------------------------------------------------------------------|
------------------------------------------------------------------------|


          Because its all inside
------------------------------------------------------------------------|
------------------------------------------------------------------------|
-----14p12---------14--14--12------------------14--12-------------------|
p12---------14p12--------------12--10--14--------------12--10--14-------|
-------------------------------------------12---------------------------|
------------------------------------------------------------------------|


    I was born to fly....Pretty high..
------------------------------------------------------------------------|
------------------------------------------------------------------------|
----14--12------------------14--12------------------------------5-------|
------------12--10--14--------------12--10--14---------7--5--7-----7----|
12----------------------12----------------------12--0-------------------|
------------------------------------------------------------------------|

------------------------------------------------------------------------|
------------------------------------------------------------------------|
------------------5--7--------------------5-----------7^--7p5-----------|
5--7-----7--5--7--------5--7-----7--5--7-----7--5--7-----------7p5------|
------0-----------------------0-----------------------------------------|
------------------------------------------------------------------------|


  Five years later on
------------------------------------------------------------------------|
------------------------------------------------------------------------|
---------5-------5h7--5-------5h7--5-------5h7--5-------5h7--5----------|
7--7--------5h7----------5h7----------5h7----------5h7----------5h7-----|
------0-----------------------------------------------------------------|
------------------------------------------------------------------------|


                      Because its all inside...
------------------------------------------------------------------------|
------------------------------------------------------------------------|
5h7--5-------5h7--7--7--7--7--14--12------------------14--12------------|
--------5h7---------------------------12--10--14--------------12--10----|
--------------------------------------------------12--------------------|
------------------------------------------------------------------------|


                                                        Get the slide out
------------------------------------------------------------------------|
--------------------------------------------------------15\13-----15----|
--------14--12------------------14--12-------------------------12/14----|
14--------------12--10--14--------------12--10--14----------------------|
----12----------------------12----------------------12------------------|
------------------------------------------------------------------------|


 Still sliding                          Because its all inside
------------------------------------------------------------------------|
/17\13--131\1/1\--------------------------------------------------------|
--------1/14121414--12------------------14--12------------------14------|
------------------------12--10--14--------------12--10--14--------------|
------------------------------------12----------------------12----------|
------------------------------------------------------------------------|

------------------------------------------------------------------------|
------------------------------------------------------------------------|
12------------------14--12------------------14--12----------------------|
----12--10--14--------------12--10--14--------------12--10--14----------|
----------------12----------------------12----------------------12------|
------------------------------------------------------------------------|


So why waste your time..
------------------------------------------------------------------------|
------------------------------------------------------------------------|
14--12------------------14--12------------------14--12------------------|
--------12--10--14--------------12--10--14--------------12--10--14------|
--------------------12----------------------12--------------------------|
------------------------------------------------------------------------|


Real Slide                                        Get in the car..
------------------------------------------------------------------------|
----10\------------------------------------------------10\8-------------|
-------------------------------------------7--9--9/12--------9--7^------|
--------------------------------5--7--7/9-------------------------------|
12-----12\11\10\9--7-------5/7------------------------------------------|
----------------------3/5-----------------------------------------------|
      Slide w/finger


------------------------------------------------------------------------|
------------------------------------------------------------------------|
7^p5-------14--12------------------14--12------------------14--12-------|
------5h7----------12--10--14--------------12--10--14-------------------|
-------------------------------12----------------------12---------------|
------------------------------------------------------------------------|


                                         Optional
------------------------------------------------------------------------|
--------------------------------------------------------10--12--13------|
----------------14--12--------------------------------------------------|
12--10--14--------------12--10--14------7^--7^--7^--7^------------------|
------------12----------------------12----------------------------------|
------------------------------------------------------------------------|

------------------------------------------------------------------------|
10--12--13--10--12--13--10--12--13--10--12--13--15--10--12--13--10------|
------------------------------------------------------------------------|
------------------------------------------------------------------------|
------------------------------------------------------------------------|
------------------------------------------------------------------------|

------------------------------------------------------------------------|
12--13--10--12--13--10--12--13--10--12--13--10--12--13--15--------------|
------------------------------------------------------------------------|
------------------------------------------------------------7/-\-/------|
------------------------------------------------------------------------|
------------------------------------------------------------------------|
Добавлено: 02.11.2013
Другие материалы по этой песне:

Страница создана 24.04.2012
http://primanota.ru/the-verve/all-in-the-mind-chords.htm
Привет, Гость.
Предлагаем пройти революционный курс по гитаре.
Подарок от PrimaNota.Ru, забирай!