PrimaNota.ru - самый крупный в мире бесплатный архив песенных текстов, аккордов, табулатур и нот


The Venetia Fair - A Lady And A Tramp - таба, видео

Регистрация Запомнить меня
Войти через:  Facebook Google Twitter Vk Yandex Mail.ru

The Venetia Fair - A Lady And A Tramp - таба, видео

Печатать
Просмотров: 116
Уроки эстрадного вокала в Санкт-Петербурге
-----------------------------------------------------------------
A Lady and a Tramp – The Venetia Fair
-----------------------------------------------------------------
Tabbed by: Jake Vigliotti
Email: jiggliotti@gmail.com     

Tuning: Drop C#


Intro (x4, palm mute when necessary):

D#|10-8-10-------------------------------------------------------|
A#|--------10--10-9-10-11-8---------------------8-10-8-----------|
F#|-------------------------10-9-7----7-8--7-10--------10--------|
C#|--------------------------------10---------------------11-----|
G#|--------------------------------------------------------------|
C#|--------------------------------------------------------------|

“Or am I just tongue tied...” (x2, palm mute when necessary):

D#|10p8h10--------------------------------------------------------|
A#|--------10--10h11p10h11p10----------------11-10----------------|
F#|---------------------------10p9-7-9-10-7--------6-7------------|
C#|---------------------------------------------------------------|
G#|---------------------------------------------------------------|
C#|---------------------------------------------------------------|

“Shutting her fucking mouth...” (x2):

D#|---------------------------------------------------------------|
A#|15\-10-8-10-11-8------15\-/11-10-------------------------------|
F#|14\--------------10-9-14\-/10-9--------------------------------|
C#|12\-------------------12\-/8--7--------------------------------|
G#|12\-------------------12\-/8--7--------------------------------|
C#|---------------------------------------------------------------|

“But you may have missed it...”

D#|---------------------------------------------------------------|
A#|---------------------------------------------------------------|
F#|-------10-------------------10-9----------------10-------------|
C#|--7-10----11-8---------7-10------10--------7-10----11-8--------|
G#|8--------------10----8--------------11-7-8--------------10-----|
C#|------------------11---------------------------------------11--|
   . . .     .  . .  .  . . .  

“[Woman] Kind, Yeah!” 

D#|---------------------------------------------------------------|
A#|--------------10-----------------------------------------------|
F#|-------10---6-9------------------------------------------------|
C#|--7-10----7----------------------------------------------------|
G#|8--------------------------------------------------------------|
C#|---------------------------------------------------------------|



Chorus (Chords in order, find the strumming pattern):

D#|---------------------------------------------------------------|
A#|---------------------------------------------------------------|
F#|7-------6-7\--------6-7----------------------------------------|
C#|7-5-8-7-6-7\0-5-8-7-6-7----------------------------------------|
G#|5-5-8-7-4-5\0-5-8-7-4-5----------------------------------------|
C#|--5-8-7-----0-5-8-7--------------------------------------------|

Verse 2 (x2):

D#|---------------------------------------------------------------|
A#|15\-10-8-10-11-8------15\-/11-10-------------------------------|
F#|14\--------------10-9-14\-/10-9--------------------------------|
C#|12\-------------------12\-/8--7--------------------------------|
G#|12\-------------------12\-/8--7--------------------------------|
C#|---------------------------------------------------------------|

“But you may have missed it...”

D#|---------------------------------------------------------------|
A#|---------------------------------------------------------------|
F#|-------10-------------------10-9----------------10-------------|
C#|--7-10----11-8---------7-10------10--------7-10----11-8--------|
G#|8--------------10----8--------------11-7-8--------------10-----|
C#|------------------11---------------------------------------11--|
   . . .     .  . .  .  . . .  

“[Woman] Kind, Yeah!” 

D#|---------------------------------------------------------------|
A#|------10-/10---------------------------------------------------|
F#|------9--------------------------------------------------------|
C#|--/10----------------------------------------------------------|
G#|8--------------------------------------------------------------|
C#|---------------------------------------------------------------|

Chorus (Chords in order, find the strumming pattern):

D#|---------------------------------------------------------------|
A#|---------------------------------------------------------------|
F#|7-------6-7\--------6------------------------------------------|
C#|7-5-8-7-6-7\0-5-8-7-6------------------------------------------|
G#|5-5-8-7-4-5\0-5-8-7-4------------------------------------------|
C#|--5-8-7-----0-5-8-7--------------------------------------------|

Bridge (Chords in order, find the strumming pattern):

D#|---------------------------------------------------------------|
A#|---------------------------------------------------------------|
F#|----------------------------10-9-------------------------------|
C#|8-7-0-3-8-7-0-2-8-7-0-3-5-7-x--x-------------------------------|
G#|8-7-0-3-8-7-0-2-8-7-0-3-5-7-8--7-------------------------------|
C#|8-7-0-3-8-7-0-2-8-7-0-3-5-7------------------------------------|


Solo:

D#|10-----------------------/10-----------------------------------|
A#|---9-10-9-10-----------------10-8----9-9-9-8-6-----------------|
F#|-------------9-10-9-10-7----------10---------------------------|
C#|---------------------------------------------------------------|
G#|---------------------------------------------------------------|
C#|---------------------------------------------------------------|

Solo part 2:

D#|-------------------------------------------8-9--10-------------|
A#|10-10-10-9-10-10-10-9-10--10-9-10-9-10[x5]---------------------|
F#|---------------------------------------------------------------|
C#|---------------------------------------------------------------|
G#|---------------------------------------------------------------|
C#|---------------------------------------------------------------|

Chorus (pickup):

D#|---------------------------------------------------------------|
A#|---------------------------------------------------------------|
F#|------6-7----------6!-7\--7\--7\--55556666---------------------|
C#|5-8-7-6-7-0-5-8-7!-6!-7\0-7\0-7\0-55556666---------------------|
G#|5-8-7-4-5-0-5-8-7!-4!-5\0-5\0-5\0-33334444---------------------|
C#|5-8-7-----0-5-8-7!------0---0---0------------------------------|


| !  accent
| /  slide up
| \  slide down
| h  hammer-on
| p  pull-off
| x  Mute note
Добавлено: 29.03.2012
Другие материалы по этой песне:
  • Аккорды и текст

Страница создана 29.03.2012
http://primanota.ru/the-venetia-fair/a-lady-and-a-tramp-chords.htm
Привет, Гость.
Предлагаем пройти революционный курс по гитаре.
Подарок от PrimaNota.Ru, забирай!