PrimaNota.ru - самый крупный в мире бесплатный архив песенных текстов, аккордов, табулатур и нот


The Van Jets - Two Tides Of Ice - таба, видео

Регистрация Запомнить меня
Войти через:  Facebook Google Twitter Vk Yandex Mail.ru

The Van Jets - Two Tides Of Ice - таба, видео

Печатать
Просмотров: 90
-------------------------------------------------------------------------------
                             Two Tides of Ice - The Van Jets
-------------------------------------------------------------------------------
Tabbed by:David
E-mail:defalpan@hotmail.com

Tuning:Standard

Intro/Main Riff
e|---------------------------------------------------------------------------|
B|---------------------------------------------------------------------------|
G|---------------------------------------------------------------------------|
D|---------------------------------------------------------------------------|
A|---------------------7-8-7-5----5-7-5-3----3-5-3-2-------------------------|
E|----5-5-7-7-8-8-5-5--------------------------------------------------------|

Verse:


A
I go to sleep
In 30 sheets
        E
I drink and I lie and I cheat
Get you fuck me boots
You bad looks
          A                              
Last call for things that you never should
Cause this junk's DNA
          E
Was never here to stay
The descent of man was here
Press CTRL ALT DEL


Chorus:

Am 
All the way from Babylon
                  E
All the way to Mars
Didn't we just have a ball
God we had it all

Am
From the mighty Amazon
             E
To crazy Tokyo
In between two tides of ice
 D E D E D
It was paradise

e|-------------------------------------------------------------------------|
B|-------------------------------------------------------------------------|
G|-------------------------------9-9-9-9-9-9-9-9-9-9-9-9-9-9-9-9-9---------|
D|-7-7-7-7-7-7-7-7-7-7-7-7-7-7-7-9-9-9-9-9-9-9-9-9-9-9-9-9-9-9-9-9---------|
A|-7-7-7-7-7-7-7-7-7-7-7-7-7-7-7-7-7-7-7-7-7-7-7-7-7-7-7-7-7-7-7-7---------|
E|-5-5-5-5-5-5-5-5-5-5-5-5-5-5-5-0-0-0-0-0-0-0-0-0-0-0-0-0-0-0-0-0-5-7-8-4-|
   Am                            E           ... Can't we have it all..

e|------------------------------------------------------------------------------|
B|------------------------------------------------------------------------------|
G|-------------------------------9-9-9-9-9-9-9-9-9-9-9-9-9-9-9-9-9--7-9-7-9-7---|
D|-7-7-7-7-7-7-7-7-7-7-7-7-7-7-7-9-9-9-9-9-9-9-9-9-9-9-9-9-9-9-9-9--7-9-7-9-7---|
A|-7-7-7-7-7-7-7-7-7-7-7-7-7-7-7-7-7-7-7-7-7-7-7-7-7-7-7-7-7-7-7-7--5-7-5-7-5---|
E|-5-5-5-5-5-5-5-5-5-5-5-5-5-5-5-0-0-0-0-0-0-0-0-0-0-0-0-0-0-0-0-0--------------|
   Am                            E                       .... It was paradise ..      
 

Main Riff

Verse 2:
Am
The time is now
So let's get loud
                                        E
One more dance to the tunes of Neverland
It's decadance par excellence
                                               Am
Banging and dancing like we're the only residents
But don't blame us how could we know
                  E
We've been monkeys that's always been so
From the time we lit the spark
We've been playing in the dark


Chorus
Am 
All the way from Babylon
                  E
All the way to Mars
Didn't we just have a ball
God we had it all

Am
From the mighty Amazon
             E
To crazy Tokyo
In between two tides of ice
 D E D E D
It was paradise


Solo:

e|-------------------------------------------------------------------------------------------------|
B|-------------------------------------------------------------------------------------------------|
G|-------------------------------------------------------------------------------------------------|
D|-------------------------------------------------------------------------------------------------|
A|-----7-9-10--7--10--7--10b*----6-7-9--6--9--6--9b----7-9-10--7--10--7--10b----6-7-9--6--6-7-9-9b-|
E|-------------------------------------------------------------------------------------------------|

*every bend is a 1/4th bend followed by vibrato

Bridge:
Played on keyboard and bass

Chorus
Am 
All the way from Babylon
                  E
All the way to Mars
Been away just have a ball
Can't we have it all

Am
From the mighty Amazon
             E
To crazy Tokio
In between two tides of ice
 D E D E D
It was paradise

Outro:
Same as the main riff



************************************

| /   slide up
| \   slide down
| h   hammer-on
| p   pull-off
| ~   vibrato
| +   harmonic
| x   Mute note
| b   Bend
| pb  Pre-bend
| br  Bend release
| pbr Pre-bend release
| brb Bend release bend

************************************
Добавлено: 20.06.2016
Другие материалы по этой песне:
  • Аккорды и текст

Страница создана 20.06.2016
http://primanota.ru/the-van-jets/two-tides-of-ice-chords.htm
Привет, Гость.
Предлагаем пройти революционный курс по гитаре.
Подарок от PrimaNota.Ru, забирай!