PrimaNota.ru - самый крупный в мире бесплатный архив песенных текстов, аккордов, табулатур и нот


The Van Jets - Matador - таба, видео

Регистрация Запомнить меня
Войти через:  Facebook Google Twitter Vk Yandex Mail.ru

The Van Jets - Matador - таба, видео

Печатать
Просмотров: 245
-------------------------------------------------------------------------------
                             Matador - The Van Jets
-------------------------------------------------------------------------------
Tabbed by: Joris G (Jeuris)

Tuning: Standard
No capo

e|---------------------------------------------------------------|
B|---------------------------------------------------------------|
G|---------------------------------------------------------------|
D|---------------------------------------------------------------|
A|---------------------------------------------------------------|
E|1-1-1-1-4-4-4-4-2-2-2-2-5-5-5-5-1-1-1-1-4-4-4-4-2-2-2-2-5-5-5-5|
  
  If i could i want, be a sinner saint
e|---------------------------------------------------------------|
B|---------------------------------------------------------------|
G|---------------------------------------------------------------|
D|---------------------------------------------------------------|
A|---------------------------------------------------------------|
E|1-1-1-1-4-4-4-4-2-2-2-2-5-5-5-5-1-1-1-1-4-4-4-4-2-2-2-2-5-5-5-5|


  Make pleasure out of guilt, matador(x5)
e|---------------------------------------------------------------|
B|---------------------------------------------------------------|
G|---------------------------------------------------------------|
D|---------------------------------------------------------------|
A|---------------------------------------------------------------|
E|1-1-1-1-4-4-4-4-2-2-2-2-5-5-5-5-1-1-1-1-4-4-4-4-2-2-2-2-5-5-5-5|


  matador(x5)
e|0-0-0-0-0-0-0-0-0-0-0-0-0-0-0-0-0-0-0-0-0-0-0-0-0-0-0-0-0-0-0-0|
B|0-0-0-0-0-0-0-0-0-0-0-0-0-0-0-0-0-0-0-0-0-0-0-0-0-0-0-0-0-0-0-0|
G|0-0-0-0-0-0-0-0-0-0-0-0-0-0-0-0-0-0-0-0-0-0-0-0-0-0-0-0-0-0-0-0|
D|5-5-5-5-9-9-9-9-3-3-3-3-7-7-7-7-5-5-5-5-9-9-9-9-3-3-3-3-7-7-7-7|
A|5-5-5-5-9-9-9-9-3-3-3-3-7-7-7-7-5-5-5-5-9-9-9-9-3-3-3-3-7-7-7-7|
E|3-3-3-3-7-7-7-7-1-1-1-1-5-5-5-5-3-3-3-3-7-7-7-7-1-1-1-1-5-5-5-5|

  WWHRAAaaaaaaaaaaaaaa!!! (x2)
e|0-0-0-0-0-0-0-0-0-0-0-0-0-0-0-0-0-0-0-0-0-0-0-0-0-0-0-0-0-0-0-0|
B|0-0-0-0-0-0-0-0-0-0-0-0-0-0-0-0-0-0-0-0-0-0-0-0-0-0-0-0-0-0-0-0|
G|0-0-0-0-0-0-0-0-0-0-0-0-0-0-0-0-0-0-0-0-0-0-0-0-0-0-0-0-0-0-0-0|
D|5-5-5-5-9-9-9-9-3-3-3-3-7-7-7-7-5-5-5-5-9-9-9-9-3-3-3-3-7-7-7-7|
A|5-5-5-5-9-9-9-9-3-3-3-3-7-7-7-7-5-5-5-5-9-9-9-9-3-3-3-3-7-7-7-7|
E|3-3-3-3-7-7-7-7-1-1-1-1-5-5-5-5-3-3-3-3-7-7-7-7-1-1-1-1-5-5-5-5|

 Wanne crash his car, going 1000 miles an hour
e|0-0-0-0-0-0-0-0-0-0-0-0-0-0-0-0-0-0-0-0-0-0-0-0-0-0-0-0-0-0-0-0|
B|0-0-0-0-0-0-0-0-0-0-0-0-0-0-0-0-0-0-0-0-0-0-0-0-0-0-0-0-0-0-0-0|
G|0-0-0-0-0-0-0-0-0-0-0-0-0-0-0-0-0-0-0-0-0-0-0-0-0-0-0-0-0-0-0-0|
D|5-5-5-5-9-9-9-9-3-3-3-3-7-7-7-7-5-5-5-5-9-9-9-9-3-3-3-3-7-7-7-7|
A|5-5-5-5-9-9-9-9-3-3-3-3-7-7-7-7-5-5-5-5-9-9-9-9-3-3-3-3-7-7-7-7|
E|3-3-3-3-7-7-7-7-1-1-1-1-5-5-5-5-3-3-3-3-7-7-7-7-1-1-1-1-5-5-5-5|

  feel the rush of blood to the head    Matador(x3)
e|0-0-0-0-0-0-0-0-0-0-0-0-0-0-0-0-0-0-0-0-0-0-0-0-0-0-0-0-0-0-0-0|
B|0-0-0-0-0-0-0-0-0-0-0-0-0-0-0-0-0-0-0-0-0-0-0-0-0-0-0-0-0-0-0-0|
G|0-0-0-0-0-0-0-0-0-0-0-0-0-0-0-0-0-0-0-0-0-0-0-0-0-0-0-0-0-0-0-0|
D|5-5-5-5-9-9-9-9-3-3-3-3-7-7-7-7-5-5-5-5-9-9-9-9-3-3-3-3-7-7-7-7|
A|5-5-5-5-9-9-9-9-3-3-3-3-7-7-7-7-5-5-5-5-9-9-9-9-3-3-3-3-7-7-7-7|
E|3-3-3-3-7-7-7-7-1-1-1-1-5-5-5-5-3-3-3-3-7-7-7-7-1-1-1-1-5-5-5-5|

  Matador(x2)
e|0-0-0-0-0-0-0-0-0-0-0-0-0-0-0-0-0-0-0-0-0-0-0-0-0-0-0-0-0-0-0-0|
B|0-0-0-0-0-0-0-0-0-0-0-0-0-0-0-0-0-0-0-0-0-0-0-0-0-0-0-0-0-0-0-0|
G|0-0-0-0-0-0-0-0-0-0-0-0-0-0-0-0-0-0-0-0-0-0-0-0-0-0-0-0-0-0-0-0|
D|5-5-5-5-9-9-9-9-3-3-3-3-7-7-7-7-5-5-5-5-9-9-9-9-3-3-3-3-7-7-7-7|
A|5-5-5-5-9-9-9-9-3-3-3-3-7-7-7-7-5-5-5-5-9-9-9-9-3-3-3-3-7-7-7-7|
E|3-3-3-3-7-7-7-7-1-1-1-1-5-5-5-5-3-3-3-3-7-7-7-7-1-1-1-1-5-5-5-5|

 
  WWHRAAaaaaaaaaaaaaaa!!! (x2)
e|0-0-0-0-0-0-0-0-0-0-0-0-0-0-0-0-0-0-0-0-0-0-0-0-0-0-0-0-0-0-0-0|
B|0-0-0-0-0-0-0-0-0-0-0-0-0-0-0-0-0-0-0-0-0-0-0-0-0-0-0-0-0-0-0-0|
G|0-0-0-0-0-0-0-0-0-0-0-0-0-0-0-0-0-0-0-0-0-0-0-0-0-0-0-0-0-0-0-0|
D|5-5-5-5-9-9-9-9-3-3-3-3-7-7-7-7-5-5-5-5-9-9-9-9-3-3-3-3-7-7-7-7|
A|5-5-5-5-9-9-9-9-3-3-3-3-7-7-7-7-5-5-5-5-9-9-9-9-3-3-3-3-7-7-7-7|
E|3-3-3-3-7-7-7-7-1-1-1-1-5-5-5-5-3-3-3-3-7-7-7-7-1-1-1-1-5-5-5-5|

  
e|---------------------------------------------------------------|
B|---------------------------------------------------------------|
G|---------------------------------------------------------------|
D|---------------------------------------------------------------|
A|---------------------------------------------------------------|
E|1-1-1-1-4-4-4-4-2-2-2-2-5-5-5-5-1-1-1-1-4-4-4-4-2-2-2-2-5-5-5-5|
  
  Wanna fly past a cliff, Feel this on my limbs until my back
e|---------------------------------------------------------------|
B|---------------------------------------------------------------|
G|---------------------------------------------------------------|
D|---------------------------------------------------------------|
A|---------------------------------------------------------------|
E|1-1-1-1-4-4-4-4-2-2-2-2-5-5-5-5-1-1-1-1-4-4-4-4-2-2-2-2-5-5-5-5|

 There's a bull inside of me, dance around with my red rag
e|0-0-0-0-0-0-0-0-0-0-0-0-0-0-0-0-0-0-0-0-0-0-0-0-0-0-0-0-0-0-0-0|
B|0-0-0-0-0-0-0-0-0-0-0-0-0-0-0-0-0-0-0-0-0-0-0-0-0-0-0-0-0-0-0-0|
G|0-0-0-0-0-0-0-0-0-0-0-0-0-0-0-0-0-0-0-0-0-0-0-0-0-0-0-0-0-0-0-0|
D|5-5-5-5-9-9-9-9-3-3-3-3-7-7-7-7-5-5-5-5-9-9-9-9-3-3-3-3-7-7-7-7|
A|5-5-5-5-9-9-9-9-3-3-3-3-7-7-7-7-5-5-5-5-9-9-9-9-3-3-3-3-7-7-7-7|
E|3-3-3-3-7-7-7-7-1-1-1-1-5-5-5-5-3-3-3-3-7-7-7-7-1-1-1-1-5-5-5-5|

  Matador(x2)
e|0-0-0-0-0-0-0-0-0-0-0-0-0-0-0-0-0-0-0-0-0-0-0-0-0-0-0-0-0-0-0-0|
B|0-0-0-0-0-0-0-0-0-0-0-0-0-0-0-0-0-0-0-0-0-0-0-0-0-0-0-0-0-0-0-0|
G|0-0-0-0-0-0-0-0-0-0-0-0-0-0-0-0-0-0-0-0-0-0-0-0-0-0-0-0-0-0-0-0|
D|5-5-5-5-9-9-9-9-3-3-3-3-7-7-7-7-5-5-5-5-9-9-9-9-3-3-3-3-7-7-7-7|
A|5-5-5-5-9-9-9-9-3-3-3-3-7-7-7-7-5-5-5-5-9-9-9-9-3-3-3-3-7-7-7-7|
E|3-3-3-3-7-7-7-7-1-1-1-1-5-5-5-5-3-3-3-3-7-7-7-7-1-1-1-1-5-5-5-5|

 Matador(x1)
e|0-0-0-0-0-0-0-0-0-0-0-0-0-0-0-0-0-0-0-0-0-0-0-0-0-0-0-0-0-0-0-0|
B|0-0-0-0-0-0-0-0-0-0-0-0-0-0-0-0-0-0-0-0-0-0-0-0-0-0-0-0-0-0-0-0|
G|0-0-0-0-0-0-0-0-0-0-0-0-0-0-0-0-0-0-0-0-0-0-0-0-0-0-0-0-0-0-0-0|
D|5-5-5-5-9-9-9-9-3-3-3-3-7-7-7-7-5-5-5-5-9-9-9-9-3-3-3-3-7-7-7-7|
A|5-5-5-5-9-9-9-9-3-3-3-3-7-7-7-7-5-5-5-5-9-9-9-9-3-3-3-3-7-7-7-7|
E|3-3-3-3-7-7-7-7-1-1-1-1-5-5-5-5-3-3-3-3-7-7-7-7-1-1-1-1-5-5-5-5|

  WWHRAAaaaaaaaaaaaaaa!!! (x2)
e|0-0-0-0-0-0-0-0-0-0-0-0-0-0-0-0-0-0-0-0-0-0-0-0-0-0-0-0-0-0-0-0|
B|0-0-0-0-0-0-0-0-0-0-0-0-0-0-0-0-0-0-0-0-0-0-0-0-0-0-0-0-0-0-0-0|
G|0-0-0-0-0-0-0-0-0-0-0-0-0-0-0-0-0-0-0-0-0-0-0-0-0-0-0-0-0-0-0-0|
D|5-5-5-5-9-9-9-9-3-3-3-3-7-7-7-7-5-5-5-5-9-9-9-9-3-3-3-3-7-7-7-7|
A|5-5-5-5-9-9-9-9-3-3-3-3-7-7-7-7-5-5-5-5-9-9-9-9-3-3-3-3-7-7-7-7|
E|3-3-3-3-7-7-7-7-1-1-1-1-5-5-5-5-3-3-3-3-7-7-7-7-1-1-1-1-5-5-5-5|

Matador(x10)
e|0-0-0-0-0-0-0-0-0-0-0-0-0-0-0-0-0-0-0-0-0-0-0-0-0-0-0-0-0-0-0-0|
B|0-0-0-0-0-0-0-0-0-0-0-0-0-0-0-0-0-0-0-0-0-0-0-0-0-0-0-0-0-0-0-0|
G|0-0-0-0-0-0-0-0-0-0-0-0-0-0-0-0-0-0-0-0-0-0-0-0-0-0-0-0-0-0-0-0|
D|5-5-5-5-9-9-9-9-3-3-3-3-7-7-7-7-5-5-5-5-9-9-9-9-3-3-3-3-7-7-7-7|
A|5-5-5-5-9-9-9-9-3-3-3-3-7-7-7-7-5-5-5-5-9-9-9-9-3-3-3-3-7-7-7-7|
E|3-3-3-3-7-7-7-7-1-1-1-1-5-5-5-5-3-3-3-3-7-7-7-7-1-1-1-1-5-5-5-5|


************************************
Добавлено: 03.01.2016
Вам также может быть интересно:
Другие материалы по этой песне:
  • Аккорды и текст

Страница создана 03.01.2016
http://primanota.ru/the-van-jets/matador-chords.htm
Привет, Гость.
Предлагаем пройти революционный курс по гитаре.
Подарок от PrimaNota.Ru, забирай!