PrimaNota.ru - самый крупный в мире бесплатный архив песенных текстов, аккордов, табулатур и нот


The Vaccines - Tiger Blood - текст песни, таба, бас-таба, видео

Регистрация Запомнить меня
Войти через:  Facebook Google Twitter Vk Yandex Mail.ru

The Vaccines - Tiger Blood - текст песни, таба, бас-таба, видео

Печатать
Просмотров: 99
---------------------------
TIGER BLOOD - The Vaccines
---------------------------

This is my first actual tab; sorry for any mistakes :)

I tabbed this with the help of this video: https://www.youtube.com/watch?v=c6t2oyKpOBg


Verse:
e|------------------------------------------------------------------|
B|-----------------------------------9~-11~-12~-14~-----------------|
G|--------------------------------------------------11--9-8--9-11---|
D|---------/9~-8~-6~-8~-9~-8~-6~-8~---------------------------------|
A|------------------------------------------------------------------|
E|------------------------------------------------------------------|

Chorus:
e|---------9-11-9-11-14-11-9-11-9-11-9-11-14-11-9-11----------------|
B|------------------------------------------------------------------|
G|--8-8-8-----------------------------------------------------------|
D|------------------------------------------------------------------|
A|------------------------------------------------------------------|
E|------------------------------------------------------------------|

e|--7-9-7-9-11-9-7-9-7-9-7-9-11-9-7-9-------------------------------|
B|------------------------------------------------------------------|
G|------------------------------------------------------------------|
D|-------------------------------------9b---------------------------|
A|------------------------------------------------------------------|
E|------------------------------------------------------------------|

Verse:
e|------------------------------------------------------------------|
B|------------------------------------------------------------------|
G|------------------------------------------------------------------|
D|---/9~-8~-6~-8~-9~-8~-6~-8~--9-8-6--------------------------------|
A|-----------------------------------9-6-9-6-4----------------------|
E|------------------------------------------------------------------|

e|----------------------------------------------14--12-11--12-14----|
B|-------------------------------9~-11~-12~-14~---------------------|
G|------------------------------------------------------------------|
D|-------/9~-8~-6~-8~-9~-8~-6~-8~-----------------------------------|
A|------------------------------------------------------------------|
E|------------------------------------------------------------------|

Chorus:
e|--11-11-11--9-11-9-11-14-11-9-11-9-11-9-11-14-11-9-11-------------|
B|------------------------------------------------------------------|
G|------------------------------------------------------------------|
D|------------------------------------------------------------------|
A|------------------------------------------------------------------|
E|------------------------------------------------------------------|

e|--7-9-7-9-11-9-7-9-7-9-7-9-11-9-7-9-------------------------------|
B|------------------------------------------------------------------|
G|------------------------------------------------------------------|
D|-------------------------------------9b---------------------------|
A|------------------------------------------------------------------|
E|------------------------------------------------------------------|

Solo:
e|-----7-----------7-----------7----------7-------------------------|
B|---------9-7-------7-9-7--------9-7-------7-9-7-------------------|
G|------------------------------------------------------------------|
D|---9---9-----9-9---------9-9---9----9-9---------------------------|
A|------------------------------------------------------------------|
E|------------------------------------------------------------------|

e|------------------------------------------------------------------|
B|--0-/9--0-/7--0-/9--0-/7--0-/7--0-/5--0-9h7-9h7-9-0-0-------------|
G|------------------------------------------------------------------|
D|------------------------------------------------------------------|
A|------------------------------------------------------------------|
E|------------------------------------------------------------------|

Verse:
e|--------------------12--11-9--11-7--------------------------------|
B|--10h9~-11~-12~-14~-----------------------------------------------|
G|------------------------------------------------------------------|
D|------------------------------------------------------------------|
A|------------------------------------------------------------------|
E|------------------------------------------------------------------|

Chorus:
e|--11-11-11--9-11-9-11-14-11-9-11-9-11-9-11-14-11-9-11-------------|
B|------------------------------------------------------------------|
G|-----------------------------------------------------------------=|
D|-----------------------------------------------------------------=|
A|------------------------------------------------------------------|
E|------------------------------------------------------------------|

e|--7-9-7-9-11-9-7-9-7-9-7-9-11-9-7-9-7-----------------------------|
B|------------------------------------------------------------------|
G|------------------------------------------------------------------|
D|------------------------------------------------------------------|
A|------------------------------------------------------------------|
E|------------------------------------------------------------------|



************************************

| /   slide up
| \   slide down
| h   hammer-on
| p   pull-off
| ~   vibrato
| +   harmonic
| x   Mute note
| b   Bend
| pb  Pre-bend
| br  Bend release
| pbr Pre-bend release
| brb Bend release bend

************************************

Добавлено: 27.12.2015
Другие материалы по этой песне:
  • Аккорды и текст

Страница создана 02.01.2014
http://primanota.ru/the-vaccines/tiger-blood-chords.htm
Привет, Гость.
Предлагаем пройти революционный курс по гитаре.
Подарок от PrimaNota.Ru, забирай!