PrimaNota.ru - самый крупный в мире бесплатный архив песенных текстов, аккордов, табулатур и нот


The Used - Yeast Lords - таба, видео

Регистрация Запомнить меня
Войти через:  Facebook Google Twitter Vk Yandex Mail.ru

The Used - Yeast Lords - таба, видео

Печатать
Просмотров: 108
Hi Friends!
I don't know if this song is gonna be on new album by The Used. And if it's gonna, i
don't even know if it's gonna be called Yeast Lords. But if you subscribe The Used channel
or whatever, you could know that they release a new video called "Yeast Lords" where 
their guitarist, Quinn, is playing some riffs. I like that riff very very much, so i decided
that i'd to learn that! So, here it is, don't know if it's right, but i tried to do it 
the same way he plays. To me it sounds right. Enjoy :)

INTRO(probably):

e|-------------------------------|-------------------------|
B|-------------------------------|-------------------------|
G|-------------------------------|------------666----------|
D|--xxx0xxxxxxxxxxxxxxxx---------|--0--33333--xxx--0~------|
A|--xxx0xxxxxxxxxxxxxxxx--X-3----|--0--33333--444--0~------|
D|--xxx0xxxxxxxxxxxxxxxx---------|--0--33333-------0~------|


VERSE:

just drums (and maybe bass, singing, i don't know at this moment :D)

And then, somewhere in the middle... (listen to timing)

e|---------------------------------------------------|
B|---------------------------------------------------|
G|----7~---------------------------------------------|
D|----7~---------------------------------------------|
A|---------------------------------------------------|
D|--------------------------PICKSLIDE----------------|



PRECHORUS:

e|------------------------------------------------------|
B|------333---------33333--------33333------------------|
G|------333---------33333--------33333-------------666--|
D|000---000---000---00000---00---00000---0-33333---xxx--|
A|000---------000-----------00-----------0-33333---444--|
D|000---------000-----------00-----------0-33333--------|
               |pm|        |pm|
 


CHORUS:

e|-----------------------------------------------------------------------------------|
B|-----------------------------------------------------------------------------------|
G|-1414141414141414-----1313131313131313---- 7777777777777-----10101010101010--------|
D|-1212121212121212-----XXXXXXXXXXXXXXXX-----XXXXXXXXXXXXX-----XXXXXXXXXXXXX---------|
A|-1212121212121212-----1111111111111111---- 5555555555555-----8888888888888---------|
D|-1212121212121212-----8888888888888888-----3333333333333-----6666666666666---------|


Repeat PRECHORUS, but end on 0~ and go on Verse

Then on CHORUS but without PRECHORUS

And then

e|----------------------------------------------------------------------------------|
B|----------------------------------------------------------------------------------|
G|----------------------------------------------------------------------------------|
D|----------------------------------------------------------------------------------|
A|----------------------------------------------------------------------------------|
D|0~----PICKSLIDE-----0~----PICKSLIDE-----0-3-2-1---00-3-2-1---00-3-2-1---00-3-2----|

And now, just wait on the entire album :)
Добавлено: 11.03.2012
Другие материалы по этой песне:
  • Аккорды и текст

Страница создана 11.03.2012
http://primanota.ru/the-used/yeast-lords-chords.htm
Привет, Гость.
Предлагаем пройти революционный курс по гитаре.
Подарок от PrimaNota.Ru, забирай!