PrimaNota.ru - самый крупный в мире бесплатный архив песенных текстов, аккордов, табулатур и нот


The Used - Come Undone - текст песни, таба, бас-таба, видео

Регистрация Запомнить меня
Войти через:  Facebook Google Twitter Vk Yandex Mail.ru

The Used - Come Undone - текст песни, таба, бас-таба, видео

Печатать
Просмотров: 157
----------------------------------------------------------------------------
                 Come Undone - The Used
----------------------------------------------------------------------------
Tabbed by:Eleison
Email:jakattack_2429@yahoo.com

Intro:

e|-------------------------------------------------------------------------|
B|-------------------------------------------------------------------------|
G|-------------------------------------------------------------------------|
D|-------------------------------------------------------------------------|
A|-----------------------------------------------------1-1-1h3p1-----------|
D|--5-5----5-0----1-1----1-8----5-5----5-0----1-1----1-----------5~--------|

Verse: Just the bass

Pre Chorus:

e|-----------------------------------------------------x-x-x-x-x-x-x-x-----|
B|-----------------------------------------------------x-x-x-x-x-x-x-x-----|
G|-----------------------------------------------------x-x-x-x-x-x-x-x-----|
D|-----1-1-1-1-1-1-1-1-1-1-1-1-1-1-1-1-3-3-3-3-3-3-3-3-x-x-x-x-x-x-x-x-----|
A|-----1-1-1-1-1-1-1-1-1-1-1-1-1-1-1-1-3-3-3-3-3-3-3-3-x-x-x-x-x-x-x-x-----|
D|12\--1-1-1-1-1-1-1-1-1-1-1-1-1-1-1-1-3-3-3-3-3-3-3-3-x-x-x-x-x-x-x-x-----|

Chorus:

e|-------------------------------------------------------------------------|
B|-------------------------------------------------------------------------|
G|--------------------------------------------------3-3-3-3-3-3-3-3--------|
D|--5-5-5-5-5-5-5-5-0-0-0-0-0-0-0-0-1-1-1-1-1-1-1-1-3-3-3-3-3-3-3-3--------|
A|--5-5-5-5-5-5-5-5-0-0-0-0-0-0-0-0-1-1-1-1-1-1-1-1-1-1-1-1-1-1-1-1--------|
D|--5-5-5-5-5-5-5-5-0-0-0-0-0-0-0-0-1-1-1-1-1-1-1-1------------------------|

e|-------------------------------------------------------------------------|
B|-------------------------------------------------------------------------|
G|--------------------------------------------------3-3-3-3-3-3-3-3--------|
D|--5-5-5-5-5-5-5-5-0-0-0-0-0-0-0-0-1-1-1-1-1-1-1-1-3-3-3-3-3-3-3-3--------|
A|--5-5-5-5-5-5-5-5-0-0-0-0-0-0-0-0-1-1-1-1-1-1-1-1-1-1-1-1-1-1-1-1--------|
D|--5-5-5-5-5-5-5-5-0-0-0-0-0-0-0-0-1-1-1-1-1-1-1-1------------------------|

e|-------------------------------------------------------------------------|
B|-------------------------------------------------------------------------|
G|--------------------------------------------------3-3-3-3-3-3-3-3--------|
D|--5-5-5-5-5-5-5-5-0-0-0-0-0-0-0-0-1-1-1-1-1-1-1-1-3-3-3-3-3-3-3-3--------|
A|--5-5-5-5-5-5-5-5-0-0-0-0-0-0-0-0-1-1-1-1-1-1-1-1-1-1-1-1-1-1-1-1--------|
D|--5-5-5-5-5-5-5-5-0-0-0-0-0-0-0-0-1-1-1-1-1-1-1-1------------------------|

e|-------------------------------------------------------------------------|
B|-------------------------------------------------------------------------|
G|----------------------------------------------------------3-3-3-3--------|
D|--5-5-5-5-5-5-5-5-0-0-0-0-0-0-0-0-1-1-1-1-1-1-1-1-1-1-1-1-3-3-3-3--------|
A|--5-5-5-5-5-5-5-5-0-0-0-0-0-0-0-0-1-1-1-1-1-1-1-1-1-1-1-1-1-1-1-1--------|
D|--5-5-5-5-5-5-5-5-0-0-0-0-0-0-0-0-1-1-1-1-1-1-1-1-1-1-1-1----------------|


Intro:

e|-------------------------------------------------------------------------|
B|-------------------------------------------------------------------------|
G|-------------------------------------------------------------------------|
D|-------------------------------------------------------------------------|
A|-----------------------------------------------------1-1-1h3p1-----------|
D|--5-5----5-0----1-1----1-8----5-5----5-0----1-1----1-----------5~--------|

Verse: Just bass again.

Pre Chorus:

e|-----------------------------------------------------x-x-x-x-x-x-x-x-----|
B|-----------------------------------------------------x-x-x-x-x-x-x-x-----|
G|-----------------------------------------------------x-x-x-x-x-x-x-x-----|
D|-----1-1-1-1-1-1-1-1-1-1-1-1-1-1-1-1-3-3-3-3-3-3-3-3-x-x-x-x-x-x-x-x-----|
A|-----1-1-1-1-1-1-1-1-1-1-1-1-1-1-1-1-3-3-3-3-3-3-3-3-x-x-x-x-x-x-x-x-----|
D|12\--1-1-1-1-1-1-1-1-1-1-1-1-1-1-1-1-3-3-3-3-3-3-3-3-x-x-x-x-x-x-x-x-----|

Chorus:

e|-------------------------------------------------------------------------|
B|-------------------------------------------------------------------------|
G|--------------------------------------------------3-3-3-3-3-3-3-3--------|
D|--5-5-5-5-5-5-5-5-0-0-0-0-0-0-0-0-1-1-1-1-1-1-1-1-3-3-3-3-3-3-3-3--------|
A|--5-5-5-5-5-5-5-5-0-0-0-0-0-0-0-0-1-1-1-1-1-1-1-1-1-1-1-1-1-1-1-1--------|
D|--5-5-5-5-5-5-5-5-0-0-0-0-0-0-0-0-1-1-1-1-1-1-1-1------------------------|

e|-------------------------------------------------------------------------|
B|-------------------------------------------------------------------------|
G|--------------------------------------------------3-3-3-3-3-3-3-3--------|
D|--5-5-5-5-5-5-5-5-0-0-0-0-0-0-0-0-1-1-1-1-1-1-1-1-3-3-3-3-3-3-3-3--------|
A|--5-5-5-5-5-5-5-5-0-0-0-0-0-0-0-0-1-1-1-1-1-1-1-1-1-1-1-1-1-1-1-1--------|
D|--5-5-5-5-5-5-5-5-0-0-0-0-0-0-0-0-1-1-1-1-1-1-1-1------------------------|

e|-------------------------------------------------------------------------|
B|-------------------------------------------------------------------------|
G|--------------------------------------------------3-3-3-3-3-3-3-3--------|
D|--5-5-5-5-5-5-5-5-0-0-0-0-0-0-0-0-1-1-1-1-1-1-1-1-3-3-3-3-3-3-3-3--------|
A|--5-5-5-5-5-5-5-5-0-0-0-0-0-0-0-0-1-1-1-1-1-1-1-1-1-1-1-1-1-1-1-1--------|
D|--5-5-5-5-5-5-5-5-0-0-0-0-0-0-0-0-1-1-1-1-1-1-1-1------------------------|

e|-------------------------------------------------------------------------|
B|-------------------------------------------------------------------------|
G|-------------------------------------------------------------------------|
D|--5-5-5-5-5-5-5-5-0-0-0-0-0-0-0-0-1-1-1-1-1-1-1-1-1-1-1-1-1-1-1-1--------|
A|--5-5-5-5-5-5-5-5-0-0-0-0-0-0-0-0-1-1-1-1-1-1-1-1-1-1-1-1-1-1-1-1--------|
D|--5-5-5-5-5-5-5-5-0-0-0-0-0-0-0-0-1-1-1-1-1-1-1-1-1-1-1-1-1-1-1-1--------|

e|-------------------------------------------------------------------------|
B|-------------------------------------------------------------------------|
G|--3-3-3-3-3-3-3-3-3-3-3-3-3-3-3-3----------------------------------------|
D|--3-3-3-3-3-3-3-3-3-3-3-3-3-3-3-3----------------------------------------|
A|--1-1-1-1-1-1-1-1-1-1-1-1-1-1-1-1----------------------------------------|
D|-------------------------------------------------------------------------|

Bridge: Hold each chord and flip the pickup switch on and off. (listen to the song for 
pattern)

e|-------------------------------------------------------------------------|
B|-------------------------------------------------------------------------|
G|-------------------------------------------------------------------------|
D|--5---------------5---------------5---------------5-----1-1-11-1-1-3-33--|
A|--5---------------5---------------5---------------5-----1-1-11-1-1-3-33--|
D|--5---------------5---------------5---------------5-----1-1-11-1-1-3-33--|

There's another piece that plays behind the above piece the sort of hard to hear.

e|-------------------------------------------------------------------------|
B|-------------------------------------------------------------------------|
G|-------------------------------------------------------------------------|
D|------------------8~9~--8~10~---9~5---------------8~9~-------------------|
A|------------------8~9~--8~10~---9~5---------------8~9~-------------------|
D|-------------------------------------------------------------------------|

Bridge:

e|------------x-x-x-x-x-x-x-----------x-x-x-x-x-x-x-----------x-x-x-x-x-x-x|
B|------------x-x-x-x-x-x-x-----------x-x-x-x-x-x-x-----------x-x-x-x-x-x-x|
G|------------x-x-x-x-x-x-x-----------x-x-x-x-x-x-x-----------x-x-x-x-x-x-x|
D|--5-5--5-5\-x-x-x-x-x-x-x-5-5--5-5\-x-x-x-x-x-x-x-5-5--5-5\-x-x-x-x-x-x-x|
A|--5-5--5-5\-x-x-x-x-x-x-x-5-5--5-5\-x-x-x-x-x-x-x-5-5--5-5\-x-x-x-x-x-x-x|
D|--5-5--5-5\-x-x-x-x-x-x-x-5-5--5-5\-x-x-x-x-x-x-x-5-5--5-5\-x-x-x-x-x-x-x|

e|------------x-x-x-x-x-x-x-----------------------------------x-x-x-x-x-x-x|
B|------------x-x-x-x-x-x-x-----------------------------------x-x-x-x-x-x-x|
G|------------x-x-x-x-x-x-x-----------------------------------x-x-x-x-x-x-x|
D|--5-5--5-5\-x-x-x-x-x-x-x-1-1--1-1----------------3-3--3-3--x-x-x-x-x-x-x|
A|--5-5--5-5\-x-x-x-x-x-x-x-1-1--1-1----------------3-3--3-3--x-x-x-x-x-x-x|
D|--5-5--5-5\-x-x-x-x-x-x-x-1-1--1-1----------------3-3--3-3--x-x-x-x-x-x-x|

Chorus:

e|-------------------------------------------------------------------------|
B|-------------------------------------------------------------------------|
G|--------------------------------------------------3-3-3-3-3-3-3-3--------|
D|--5-5-5-5-5-5-5-5-0-0-0-0-0-0-0-0-1-1-1-1-1-1-1-1-3-3-3-3-3-3-3-3--------|
A|--5-5-5-5-5-5-5-5-0-0-0-0-0-0-0-0-1-1-1-1-1-1-1-1-1-1-1-1-1-1-1-1--------|
D|--5-5-5-5-5-5-5-5-0-0-0-0-0-0-0-0-1-1-1-1-1-1-1-1------------------------|

e|-------------------------------------------------------------------------|
B|-------------------------------------------------------------------------|
G|--------------------------------------------------3-3-3-3-3-3-3-3--------|
D|--5-5-5-5-5-5-5-5-0-0-0-0-0-0-0-0-1-1-1-1-1-1-1-1-3-3-3-3-3-3-3-3--------|
A|--5-5-5-5-5-5-5-5-0-0-0-0-0-0-0-0-1-1-1-1-1-1-1-1-1-1-1-1-1-1-1-1--------|
D|--5-5-5-5-5-5-5-5-0-0-0-0-0-0-0-0-1-1-1-1-1-1-1-1------------------------|

e|-------------------------------------------------------------------------|
B|-------------------------------------------------------------------------|
G|--------------------------------------------------3-3-3-3-3-3-3-3--------|
D|--5-5-5-5-5-5-5-5-0-0-0-0-0-0-0-0-1-1-1-1-1-1-1-1-3-3-3-3-3-3-3-3--------|
A|--5-5-5-5-5-5-5-5-0-0-0-0-0-0-0-0-1-1-1-1-1-1-1-1-1-1-1-1-1-1-1-1--------|
D|--5-5-5-5-5-5-5-5-0-0-0-0-0-0-0-0-1-1-1-1-1-1-1-1------------------------|

e|-------------------------------------------------------------------------|
B|-------------------------------------------------------------------------|
G|-------------------------------------------------------------------------|
D|--5-5-5-5-5-5-5-5-0-0-0-0-0-0-0-0-1-1-1-1-1-1-1-1-1-1-1-1-1-1-1-1--------|
A|--5-5-5-5-5-5-5-5-0-0-0-0-0-0-0-0-1-1-1-1-1-1-1-1-1-1-1-1-1-1-1-1--------|
D|--5-5-5-5-5-5-5-5-0-0-0-0-0-0-0-0-1-1-1-1-1-1-1-1-1-1-1-1-1-1-1-1--------|

e|-------------------------------------------------------------------------|
B|-------------------------------------------------------------------------|
G|--3-3-3-3-3-3-3-3-3-3-3-3-3-3-3-3----------------------------------------|
D|--3-3-3-3-3-3-3-3-3-3-3-3-3-3-3-3----------------------------------------|
A|--1-1-1-1-1-1-1-1-1-1-1-1-1-1-1-1----------------------------------------|
D|-------------------------------------------------------------------------|

Outro:

e|------------x-x-x-x-x-x-x-----------x-x-x-x-x-x-x-----------x-x-x-x-x-x-x|
B|------------x-x-x-x-x-x-x-----------x-x-x-x-x-x-x-----------x-x-x-x-x-x-x|
G|------------x-x-x-x-x-x-x-----------x-x-x-x-x-x-x-----------x-x-x-x-x-x-x|
D|--5-5--5-5\-x-x-x-x-x-x-x-5-5--5-5\-x-x-x-x-x-x-x-5-5--5-5\-x-x-x-x-x-x-x|
A|--5-5--5-5\-x-x-x-x-x-x-x-5-5--5-5\-x-x-x-x-x-x-x-5-5--5-5\-x-x-x-x-x-x-x|
D|--5-5--5-5\-x-x-x-x-x-x-x-5-5--5-5\-x-x-x-x-x-x-x-5-5--5-5\-x-x-x-x-x-x-x|

e|------------x-x-x-x-x-x-x------------------------------------------------|
B|------------x-x-x-x-x-x-x------------------------------------------------|
G|------------x-x-x-x-x-x-x------------------------------------------------|
D|--5-5--5-5\-x-x-x-x-x-x-x-5~---------------------------------------------|
A|--5-5--5-5\-x-x-x-x-x-x-x-5~---------------------------------------------|
D|--5-5--5-5\-x-x-x-x-x-x-x-5~---------------------------------------------|

************************************

| /   slide up
| \   slide down
| h   hammer-on
| p   pull-off
| ~   vibrato
| +   harmonic
| x   Mute note
| b   Bend
| pb  Pre-bend
| br  Bend release
| pbr Pre-bend release
| brb Bend release bend

************************************
Добавлено: 06.12.2013
Другие материалы по этой песне:
  • Аккорды и текст

Страница создана 21.03.2012
http://primanota.ru/the-used/come-undone-chords.htm
Привет, Гость.
Предлагаем пройти революционный курс по гитаре.
Подарок от PrimaNota.Ru, забирай!