PrimaNota.ru - самый крупный в мире бесплатный архив песенных текстов, аккордов, табулатур и нот


The Upper Room - Were Finished With Finishing School - таба, видео

Регистрация Запомнить меня
Войти через:  Facebook Google Twitter Vk Yandex Mail.ru

The Upper Room - Were Finished With Finishing School - таба, видео

Печатать
Просмотров: 52
-------------------------------------------------------------------------------
			     WE'RE FINISHED WITH FINISHING SCHOOL - The Upper Crust
-------------------------------------------------------------------------------

Tabbed by: Isaias Garcia (TexasFury)

Tuning: 1/2 step down


Guitar - left

    Intro
      W                   W                   H        Q    Q         Q.     E  H
D#||-------------------|-------------------|---------------------|-----------0--2--------|
A#||-------------------|-------------------|---------------------|--2g3------L--L--------|
F#||-------------------|-------------------|---------------------|----2------L--L--------|
C#||-------------------|-------------------|---------------------|----0------L--L--------|
G#||-------------------|-------------------|----------------0----|-----------------------|
D#||-------------------|-------------------|---------------------|-----------------------|


  H.           Q       Q.     E  Q.     E     H.           Q       Q.     E  H
--L-----------------|--2------0--0---------|--------------------|---------------------|
--L-----------------|--3------2--2---------|--------------------|--3------2--3--------|
--L-----------------|--2------2--2---------|--------------------|--2------2--2--------|
--L-----------------|----------------------|--------------------|--0------0--0--------|
---------------0----|-------------------0--|--0------------0----|---------------------|
--------------------|----------------------|--------------------|---------------------|


  H.           Q       Q.       E  H           H.           Q       Q.     E  H
--------------------|--0--------------------|--------------------|---------2--5--------|
--L-----------------|--0------0g2--2--------|--L-----------------|--3------L--L--------|
--L-----------------|--2--------2--2--------|--L-----------------|--2------L--L--------|
--L-----------------|-----------------------|--------------------|--0------L--L--------|
---------------0----|-----------------------|---------------0----|---------------------|
--------------------|-----------------------|--------------------|---------------------|


  H.           Q       Q.     E  Q.     E     H.           E  E     Q.     E  H
--L-----------------|--2------0--0------x--|---------------------|---------------------|
--L-----------------|--3------2--2------x--|---------------------|--3------2--3--------|
--L-----------------|--2------2--2------x--|---------------------|--2------L--L--------|
--L-----------------|----------------------|--2------------------|--0------L--L--------|
---------------0----|-------------------0--|--0------------0--0--|---------------------|
--------------------|----------------------|---------------------|---------------------|


  H        E.  S   E   E     Q.     E     H.           E  E     H.           E  E
--------------------------|------------|---------------------|---------------------|
--L--------L--------------|--0------2--|---------------------|---------------------|
--L--------L---x\------0--|--0------2--|---------------------|---------------------|
--L--------L---x\------0--|--0------2--|------------------2--|--L------------L-----|
------------------12\-----|------------|--0------------L--0--|--L------------L--0--|
--------------------------|------------|---------------------|---------------------|


  H.           E  E     Q    E   E  E    E  E  E     E   E  Q    Q.     E
---------------------|----------------------------|------------------------|
---------------------|----------------------------|------------------------|
---------------------|-------4b--2--4br--2--------|------------------------|
---------------------|----------------------4--0--|--Lh--2--2----2------0--|
--L------------L--0--|--L----------------------0--|--L------0----0------0--|
---------------------|----------------------------|------------------------|


  E  E  E   E  Q.     E     E  E  E   E  Q.     E     E  E  E  E  Q    E  E
-------------------------|-------------------------|-------------------------|
-------------------------|-------------------------|-------------------------|
-------------------------|-------------------------|-------------------------|
--L--2--2h--4--4------0--|--L--2--2h--4--4------0--|--L--2--4--4--2----0--0--|
--L--0--0---L--0------0--|--L--0--0---L--0------0--|--L--0--0--0--0----0--0--|
-------------------------|-------------------------|-------------------------|


  E   E  E  E  Q.     E     E  E  E   E  Q.     E     E  E  E   E  Q.     E
-------------------------|-------------------------|-------------------------|
-------------------------|-------------------------|-------------------------|
-------------------------|-------------------------|-------------------------|
--Lh--2--2--2--2------0--|--L--2--2h--4--4------0--|--L--2--2h--4--4------0--|
--L------0--0--0------0--|--L--0--0---L--0------0--|--L--0--0---L--0------0--|
-------------------------|-------------------------|-------------------------|

                          Verse 1
  E  E  Q    E  E  E  E     H.           E  E     H.           E  E     H.           E  E
-------------------------|---------------------|---------------------|---------------------|
-------------------------|---------------------|---------------------|---------------------|
-------------------------|---------------------|---------------------|---------------------|
--L--2--4----2--x--x--0--|------------------0--|------------------0--|------------------0--|
--L--0--0----0--x--x--0--|--L------------L--0--|--L------------L--0--|--L------------L--0--|
-------------------------|---------------------|---------------------|---------------------|


  H.           E  E     H.           E  E     H.           E  E     H.           E  E
---------------------|---------------------|---------------------|---------------------|
---------------------|---------------------|---------------------|---------------------|
---------------------|---------------------|---------------------|---------------------|
------------------0--|------------------0--|------------------0--|------------------0--|
--L------------L--0--|--L------------L--0--|--L------------L--0--|--L------------L--0--|
---------------------|---------------------|---------------------|---------------------|


  H        E  E  E  E     E  E  H        E  E     E  E  H        E  E     E  E  H        E E
-----------------------|-----------------------|-----------------------|-----------------------|
-----------------------|--------------------3--|--L--------------------|--------------------3--|
--------------------0--|--L-----------------2--|--L-----------------0--|--L-----------------2--|
-----------2--x--x--0--|--L--2--L--------L--0--|--L--2--L--------L--0--|--L--2--L--------L--0--|
--L--------0--x--x-----|-----0--L--------L--0--|--L--0--L--------L-----|-----0--L--------L--0--|
--------------------3--|--L--------------------|--------------------3--|--L--------------------|


  E  E  H        E  E     E  E  H        E  E     E  E  H        E  E     W
-----------------------|-----------------------|-----------------------|-------------------|
--L--------------------|--------------------3--|--L--------------------|-------------------|
--L-----------------0--|--L-----------------2--|--L-----------------2--|-------------------|
--L--2--L--------L--0--|--L--2--L--------L--0--|--L--2--L--------L--2--|-------------------|
--L--0--L--------L-----|-----0--L--------L--0--|--L--0--L--------L--0--|-------------------|
--------------------3--|--L--------------------|-----------------------|-------------------|


  H        E  E  E  E     E  E  Q    Q.     E     E  E  E  E  Q.     E     E  E  E   E  
    E
-----------------------|-----------------------|------------------------|-------------------------|
-----------------------|-----------------------|------------------------|-------------------------|
-----------------------|-----------------------|------------------------|-------------------------|
-----------x--x--x--0--|--L--2--2----2------0--|--L--2--2--4--4------0--|--L--2--2h--4--4------0--|
-----------x--x--x--0--|--L--0--0----0------0--|--L--0--0--0--0------0--|--L--0--0---L--0------0--|
-----------------------|-----------------------|------------------------|-------------------------|


  E  E  Q    Q    E  E     E  E  Q    Q.     E     E  E  E  E  Q.     E     E  E  E   E  
    E
------------------------|-----------------------|------------------------|-------------------------|
------------------------|-----------------------|------------------------|-------------------------|
------------------------|-----------------------|------------------------|-------------------------|
--L--2--4----2----0--0--|--L--2--2----2------0--|--L--2--2--4--4------0--|--L--2--2h--4--4------0--|
--L--0--0----0----0--0--|--L--0--0----0------0--|--L--0--0--0--0------0--|--L--0--0---L--0------0--|
------------------------|-----------------------|------------------------|-------------------------|

                          Verse 2
  E  E  Q    E  E  E  E     H.           E  E     H.           E  E     H.           E  E
-------------------------|---------------------|---------------------|---------------------|
-------------------------|---------------------|---------------------|---------------------|
-------------------------|---------------------|---------------------|---------------------|
--L--2--4----2--x--x--0--|------------------0--|------------------0--|------------------0--|
--L--0--0----0--x--x--0--|--L------------L--0--|--L------------L--0--|--L------------L--0--|
-------------------------|---------------------|---------------------|---------------------|


  H.           E  E     H.           E  E     H.           E  E     H.           E  E
---------------------|---------------------|---------------------|---------------------|
---------------------|---------------------|---------------------|---------------------|
---------------------|---------------------|---------------------|---------------------|
------------------0--|------------------0--|------------------0--|------------------0--|
--L------------L--0--|--L------------L--0--|--L------------L--0--|--L------------L--0--|
---------------------|---------------------|---------------------|---------------------|


  H        E  E  E  E     E  E  H        E  E     E  E  H        E  E     E  E  H        E E
-----------------------|-----------------------|-----------------------|-----------------------|
-----------------------|--------------------3--|--L--------------------|--------------------3--|
--------------------0--|--L-----------------2--|--L-----------------0--|--L-----------------2--|
-----------2--x--x--0--|--L--2--L--------L--0--|--L--2--L--------L--0--|--L--2--L--------L--0--|
--L--------0--x--x-----|-----0--L--------L--0--|--L--0--L--------L-----|-----0--L--------L--0--|
--------------------3--|--L--------------------|--------------------3--|--L--------------------|


  E  E  H        E  E     E  E  H        E  E     E  E  H        E  E     W
-----------------------|-----------------------|-----------------------|-------------------|
--L--------------------|--------------------3--|--L--------------------|-------------------|
--L-----------------0--|--L-----------------2--|--L-----------------2--|-------------------|
--L--2--L--------L--0--|--L--2--L--------L--0--|--L--2--L--------L--2--|-------------------|
--L--0--L--------L-----|-----0--L--------L--0--|--L--0--L--------L--0--|-------------------|
--------------------3--|--L--------------------|-----------------------|-------------------|

                        Guitar Solo
  H        E  E  E  E     E   E  Q    Q.     E     E  E  E   E  Q.     E
-----------------------|------------------------|-------------------------|
-----------------------|------------------------|-------------------------|
-----------------------|------------------------|-------------------------|
-----------x--x--x--0--|--Lh--2--2----2------0--|--L--2--2h--4--4------0--|
-----------x--x--x--0--|--L------0----0------0--|--L--0--0---L--0------0--|
-----------------------|------------------------|-------------------------|


  E  E  E   E  Q.     E     E  E  E  E  Q    E  E     E   E  E  E  Q.     E
-------------------------|-------------------------|-------------------------|
-------------------------|-------------------------|-------------------------|
-------------------------|-------------------------|-------------------------|
--L--2--2h--4--4------0--|--L--2--4--4--2----0--0--|--Lh--2--2--2--2------0--|
--L--0--0---L--0------0--|--L--0--0--0--0----0--0--|--L------0--0--0------0--|
-------------------------|-------------------------|-------------------------|


  E  E  E   E  Q.     E     E  E  E   E  Q.     E     E  E  Q    Q    E  E
-------------------------|-------------------------|------------------------|
-------------------------|-------------------------|---------------------3--|
-------------------------|-------------------------|---------------------0--|
--L--2--2h--4--4------0--|--L--2--2h--4--4------0--|--L--2--4----2----2--0--|
--L--0--0---L--0------0--|--L--0--0---L--0------0--|--L--0--0----0----0-----|
-------------------------|-------------------------|---------------------3--|


  E  E  Q    Q    E  E     E  E  Q    Q    E  E     E  E  Q    Q    E  E     E  E  Q    
   E  E
------------------------|------------------------|------------------------|------------------------|
--L------------------3--|--L------------------3--|--L------------------3--|--L------------------3--|
--L--2--2------------2--|--L--2--2------------0--|--L--2--2------------2--|--L--2--2------------0--|
--L--2--2------------0--|--L--2--2------------0--|--L--2--2------------0--|--L--2--2------------0--|
-----0--0---------------|-----0--0---------------|-----0--0---------------|-----0--0---------------|
--L---------------------|---------------------3--|--L---------------------|---------------------3--|


  E  E  Q    Q    E  E     E  E  Q    Q    E  E     E  E  Q    Q    E  E
------------------------|------------------------|------------------------|
--L------------------3--|--L------------------3--|--L------------------3--|
--L--2--2------------2--|--L--2--2------------0--|--L--2--2------------2--|
--L--2--2------------0--|--L--2--2------------0--|--L--2--2------------0--|
-----0--0---------------|-----0--0---------------|-----0--0---------------|
--L---------------------|---------------------3--|--L---------------------|

                              Verse 3
  E  E  E   E  E    E  E  E     H.           E  E     H.           E  E     H.           E E
-----------------------------|---------------------|---------------------|---------------------|
--L--------------------------|---------------------|---------------------|---------------------|
--L--2--4b--2--4br--2--------|---------------------|---------------------|---------------------|
--L--2-----------------4--0--|------------------0--|------------------0--|------------------0--|
-----0--------------------0--|--L------------L--0--|--L------------L--0--|--L------------L--0--|
-----------------------------|---------------------|---------------------|---------------------|


  H.           E  E     H.           E  E     H.           E  E     H.           E  E
---------------------|---------------------|---------------------|---------------------|
---------------------|---------------------|---------------------|---------------------|
---------------------|---------------------|---------------------|---------------------|
------------------0--|------------------0--|------------------0--|------------------0--|
--L------------L--0--|--L------------L--0--|--L------------L--0--|--L------------L--0--|
---------------------|---------------------|---------------------|---------------------|


  H        E  E  E  E     E  E  H        E  E     E  E  H        E  E     E  E  H        E E
-----------------------|-----------------------|-----------------------|-----------------------|
-----------------------|--------------------3--|--L--------------------|--------------------3--|
--------------------0--|--L-----------------2--|--L-----------------0--|--L-----------------2--|
-----------2--x--x--0--|--L--2--L--------L--0--|--L--2--L--------L--0--|--L--2--L--------L--0--|
--L--------0--x--x-----|-----0--L--------L--0--|--L--0--L--------L-----|-----0--L--------L--0--|
--------------------3--|--L--------------------|--------------------3--|--L--------------------|


  E  E  H        E  E     E  E  H        E  E     E  E  H        E  E     W
-----------------------|-----------------------|-----------------------|-------------------|
--L--------------------|--------------------3--|--L--------------------|-------------------|
--L-----------------0--|--L-----------------2--|--L-----------------2--|-------------------|
--L--2--L--------L--0--|--L--2--L--------L--0--|--L--2--L--------L--2--|-------------------|
--L--0--L--------L-----|-----0--L--------L--0--|--L--0--L--------L--0--|-------------------|
--------------------3--|--L--------------------|-----------------------|-------------------|


  H        E  E  E  E     H.           E  E     H.           E  E     H.           E  E
-----------------------|---------------------|---------------------|---------------------|
-----------------------|---------------------|---------------------|---------------------|
-----------------------|---------------------|---------------------|---------------------|
-----------x--x--x--0--|------------------0--|------------------0--|------------------0--|
-----------x--x--x--0--|--L------------L--0--|--L------------L--0--|--L------------L--0--|
-----------------------|---------------------|---------------------|---------------------|


  H.           E  E     H.           E  E     H.           E  E     H.           E  E
---------------------|---------------------|---------------------|---------------------|
---------------------|---------------------|---------------------|---------------------|
---------------------|---------------------|---------------------|---------------------|
------------------0--|------------------0--|------------------0--|------------------0--|
--L------------L--0--|--L------------L--0--|--L------------L--0--|--L------------L--0--|
---------------------|---------------------|---------------------|---------------------|


  H        E  E  E  E     E  E  Q    Q    E  E     E  E  Q    Q    E  E     E  E  Q    Q 
  E  E
-----------------------|------------------------|------------------------|------------------------|
--------------------3--|--L--2--2------------3--|--L-----2------------3--|--L--2--2------------3--|
--------------------0--|--L--2--2------------2--|--L--2--2------------0--|--L--2--2------------2--|
-----------2--x--x--0--|--L--2--2------------0--|--L--2--2------------0--|--L--2--2------------0--|
--L--------0--x--x-----|-----0--0---------------|-----0--0---------------|-----0--0---------------|
--------------------3--|--L---------------------|---------------------3--|--L---------------------|


  E  E  Q    Q    E  E     E  E  Q    H           W                   W
------------------------|----------------------|-------------------|-------------------|
--L-----2------------3--|--L-----2----L--------|--L----------------|--L----------------|
--L--2--2------------2--|--L--2--2----L--------|--L----------------|--L----------------|
--L--2--2------------0--|--L--2--2----L--------|--L----------------|--L----------------|
-----0--0---------------|-----0--0----L--------|--L----------------|--L----------------|
------------------------|----------------------|-------------------|-------------------|


  W
-------------------||
--L----------------||
--L----------------||
--L----------------||
--L----------------||
-------------------||

Guitar - right

    Intro
      W                   W                   H        Q    Q       Q.     E  H
D#||-------------------|-------------------|---------------------|---------------------|
A#||-------------------|-------------------|---------------------|---------7--7--------|
F#||-------------------|-------------------|---------------------|--7------------------|
C#||-------------------|-------------------|---------------------|--7------------------|
G#||-------------------|-------------------|----------------0----|--L------------------|
D#||-------------------|-------------------|---------------------|---------------------|


  H.            Q          Q.     E  H           H.           Q         Q.     E  H
---------------------|------------------------|--------------------|-----------------------|
--L-------------x----|------------------------|--------------------|-----------------------|
----------------x----|--9g11------9--9--------|--L------------x----|--6g7------6--7--------|
---------------11----|-----7---------7--------|--L------------x----|----7------------------|
---------------------|---------------0--------|--L------------0----|-----------------------|
---------------------|------------------------|--------------------|-----------------------|


  H.           Q       Q.     E  H           H.           Q       Q.     E   H
--------------------|---------------------|--------------------|----------------------|
--------------------|---------------------|--------------------|---------7--10--------|
--L------------x----|--4------6--6--------|--L------------x----|--7-------------------|
---------------x----|--7------------------|---------------x----|--7-------------------|
---------------0----|---------------------|---------------0----|----------------------|
--------------------|---------------------|--------------------|----------------------|


   H.           Q          Q.     E  H           H.           Q         Q.     E  H
---------------------|------------------------|--------------------|-----------------------|
---L------------x----|------------------------|--------------------|-----------------------|
----------------x----|--9g11------9--9--------|--L------------x----|--6g7------6--7--------|
----------------x----|-----7------------------|---------------x----|----7------------------|
----------------0----|------------------------|---------------0----|-----------------------|
---------------------|------------------------|--------------------|-----------------------|


  H.           Q       Q.     E     H.           E  E     H.           E  E     H.       
   E  E
--------------------|------------|---------------------|---------------------|---------------------|
---------------x----|------------|---------------------|---------------------|---------------------|
--L------------x----|--4------6--|---------------------|---------------------|---------------------|
---------------x----|--5------7--|---------------------|---------------------|---------------------|
---------------0----|------------|--0------------L--0--|--L------------L--0--|--L------------L--0--|
--------------------|------------|---------------------|---------------------|---------------------|


  Q    Q     E    E  E  E     E   E  Q    Q.     E     E  E  E   E  Q.     E
---------------------------|------------------------|-------------------------|
---------------------------|------------------------|-------------------------|
-------4b----4br--2--------|------------------------|-------------------------|
---------------------4--0--|--Lh--2--2----2------0--|--L--2--2h--4--4------0--|
--L---------------------0--|--L------0----0------0--|--L--0--0---L--0------0--|
---------------------------|------------------------|-------------------------|


  E  E  E   E  Q.     E     E  E  Q    Q    E  E     E  E  Q    Q.     E
-------------------------|------------------------|-----------------------|
-------------------------|------------------------|-----------------------|
-------------------------|------------------------|-----------------------|
--L--2--2h--4--4------0--|--L--2--4----2----0--0--|--L--2--2----2------0--|
--L--0--0---L--0------0--|--L--0--0----0----0--0--|--L--0--0----0------0--|
-------------------------|------------------------|-----------------------|


  E  E  E   E  Q.     E     E  E  E   E  Q.     E     E  E  Q    Q    E  E
-------------------------|-------------------------|------------------------|
-------------------------|-------------------------|---------------------3--|
-------------------------|-------------------------|---------------------0--|
--L--2--2h--4--4------0--|--L--2--2h--4--4------0--|--L--2--4----2----0--0--|
--L--0--0---L--0------0--|--L--0--0---L--0------0--|--L--0--0----0----0-----|
-------------------------|-------------------------|---------------------3--|

Verse 1
  E  E  Q    Q.     E     E  E  E  E  Q.     E     E  E  E  E  Q.     E     E  E  E  E  
    E
-----------------------|------------------------|------------------------|------------------------|
--L--------------------|------------------------|------------------------|------------------------|
--L--------------------|------------------------|------------------------|------------------------|
--L-----2----2------0--|--L--2--2--4--4------0--|--L--2--2--4--4------0--|--L--2--2--4--4------0--|
-----0--0----0------0--|--L--0--0--0--0------0--|--L--0--0--0--0------0--|--L--0--0--0--0------0--|
--L--------------------|------------------------|------------------------|------------------------|


  E  E  E  E  Q.     E     E  E  E  E  Q.     E     E  E  E  E  Q.     E     E  E  Q    
    E
------------------------|------------------------|------------------------|-----------------------|
------------------------|------------------------|---------------------3--|--L--------------------|
------------------------|------------------------|---------------------0--|--L--------------------|
--L--2--2-----2------2--|--L--2--2--4--4------0--|--L--2--2--4--4------0--|--L--2--L----2---------|
--L--0--0--0--0------0--|--L--0--0--0--0------0--|--L--0--0--0--0---------|-----0--L----0---------|
------------------------|------------------------|---------------------3--|--L-----------------3--|


  E  E  H        E  E     Q    H        E  E     E  E  H        E  E     H.           E  E
-----------------------|----------------------|-----------------------|---------------------|
-----------------3-----|----------------------|-----------------3-----|---------------------|
-----------------2-----|----------------------|-----------------2-----|---------------------|
-----2--L--------0-----|-------2--------L-----|-----2--L--------0--2--|--L------------L-----|
-----0--L-----------0--|--L----0--------L-----|-----0--L-----------0--|--L------------L-----|
--L--------------------|-------------------3--|--L--------------------|------------------3--|


  E  E  H        E  E     E  E  H        E  E     W                   H        E  E  E  E
-----------------------|-----------------------|-------------------|-----------------------|
--------------------3--|--L--------------------|-------------------|-----------x--0--0-----|
--------------------2--|--L--------------------|-------------------|-----------x--0--0-----|
-----2--L--------L--0--|--L--2--2--------L--2--|-------------------|-----------x--0--0--0--|
-----0--L--------L--0--|--L--0--0--------L--0--|-------------------|--------------------0--|
--L--------------------|-----------------------|-------------------|-----------------------|


  E   E  Q    Q.     E     E  E  E   E  Q.     E     E  E  E   E  Q.     E
------------------------|-------------------------|-------------------------|
------------------------|-------------------------|-------------------------|
------------------------|-------------------------|-------------------------|
--Lh--2--2----2------0--|--L--2--2h--4--4------0--|--L--2--2h--4--4------0--|
--L------0----0------0--|--L--0--0---L--0------0--|--L--0--0---L--0------0--|
------------------------|-------------------------|-------------------------|


  E  E  Q    Q    E  E     E   E  Q    Q.     E     E  E  E   E  Q.     E
------------------------|------------------------|-------------------------|
------------------------|------------------------|-------------------------|
------------------------|------------------------|-------------------------|
--L--2--4----2----0--0--|--Lh--2--2----2------0--|--L--2--2h--4--4------0--|
--L--0--0----0----0--0--|--L---0--0----0------0--|--L--0--0---L--0------0--|
------------------------|------------------------|-------------------------|

                                                   Verse 2
  E  E  E   E  Q.     E     E  E  Q    Q    E  E     E   E  Q    Q.     E
-------------------------|------------------------|------------------------|
-------------------------|------------------------|------------------------|
-------------------------|------------------------|------------------------|
--L--2--2h--4--4------0--|--L--2--4----2----0--0--|--Lh--2--2----2------0--|
--L--0--0---L--0------0--|--L--0--0----0----0--0--|------0--0----0------0--|
-------------------------|------------------------|--L---------------------|


  E  E  E  E  Q.     E     E  E  E  E  Q.     E     E  E  E  E  Q.     E      H        
    E
------------------------|------------------------|-------------------------|---------------------|
------------------------|------------------------|-------------------------|---------------------|
------------------------|------------------------|-------------------------|---------------------|
--L--2--2--4--4------0--|--L--2--2--4--4------0--|--L--2--2--4--4------0h--|--2--------2------0--|
--L--0--0--0--0------0--|--L--0--0--0--0------0--|--L--0--0--0--0------0---|--L--------0------0--|
------------------------|------------------------|-------------------------|---------------------|


  E   E  Q    Q.     E     E   E  Q    Q.     E     E  E  Q    Q.     E     E  E  H      
 E  E
------------------------|------------------------|-----------------------|-----------------------|
------------------------|------------------------|-----------------------|--------------------3--|
------------------------|------------------------|-----------------------|--------------------2--|
--0h--2--2----4------0--|--0h--2--2----4------0--|--L--2--4----2---------|-----2--L--------L--0--|
--0---0--0----0------0--|--0---L--0----0------0--|--L--0--0----0---------|-----0--L--------L--0--|
------------------------|------------------------|--------------------3--|--L--------------------|


  E  E  H        E  E     E  E  H        E  E     E  E  H        E  E     E  E  H        E E
-----------------------|-----------------------|-----------------------|-----------------------|
--L--------------------|--------------------3--|--L--------------------|--------------------3--|
--L--------------------|--------------------2--|--L--------------------|-----------------0--2--|
--L--2--L--------L-----|-----2--L--------0--0--|--L--2--L--------L-----|-----2--L--------0--0--|
--L--0--L--------L-----|-----0--L--------0--0--|--L--0--L--------L-----|-----0--L-----------0--|
--------------------3--|--L--------------------|--------------------3--|--L--------------------|


  E  E  H        E  E     Q    Q    H           H        E  E  E  E     H        E  E   Q
-----------------------|---------------------|-----------------------|-----------------------|
--L--------------------|---------------------|-----------------------|-----------------------|
--L--------------0-----|--x------------------|-----------------------|-----------x--7b--L----|
--L--2--L--------0--2--|--x------------------|-----------5-----5--7--|--L--------x-----------|
--L--0--L-----------0--|--x------------------|--------------7--------|-----------------------|
-----------------------|---------------------|-----------------------|-----------------------|


  E  E  E     S  S  Q     S  S  S  S    E  S S E  E   E  E  Q       E   E  E  E  E  E  E 
 E
-----8-------------------------------|---------------------------|----------------------------|
-----8-------------------------------|---------------------------|----------------------------|
--L-----7pbr--5h-7p-5~---------------|---------------------------|----------------------------|
--------------------------7p-5h-7p-5-|--5------------------------|----------------------------|
-------------------------------------|-----7-6-5--3b--L--0--3----|--3b------------------------|
-------------------------------------|---------------------------|------5--3--5-----0--3h--5--|


  PM          PM
  E  S  S  E  S   S E  S S  E   E     E  S  S E  E   E  E  E   E
-----------------------------------|--------------------5------5--|
--------------------------------5--|--5--8p-5-5--8b--L-----8b-----|
--------------------------------5--|------------------------------|
-------------------------5h-7~-----|------------------------------|
-----------------------7-----------|------------------------------|
--5--3h-4h-5--5s-12----------------|------------------------------|


  E  E   E     S S E   E   E  E      E  E  E  E   E   E   E  E      E  E  E  E  E  E  E  E
--L-------------------------------|-----5------------------------|---------------------------|
-----8b--8pbr--5-----------5--7b--|--7--5------------------------|--------------5------------|
-----------------7-5~--L\--5--7b--|--7--5------------------------|--------------5-----5------|
----------------------------------|--------7--7~--7~--L\-----7~--|--L--7--7--7-----7-----7~--|
----------------------------------|------------------------------|---------------------------|
----------------------------------|------------------------------|---------------------------|


  E  E  E  E   E  E  E  E      E  E   E  E   E  E  E  E       E  E  E  E   E  E  E  E
----------------------------|------------------------------|----------------------------|
-----5---------7--5---------|----------------5-----5--7br--|--L--------5b--L------------|
-----5---------7--5---------|----------------5-----5--7br--|--L--5--7--5b--L------------|
--L-----7--L\--------7--7~--|--L--7~--7--L\-----7----------|------------------7--5--7~--|
----------------------------|------------------------------|----------------------------|
----------------------------|------------------------------|----------------------------|


  E  E   E   E  E  E  E  E      E  E   E  E   E   E  E  E      E  E   E  E  E  E  E  E
-----------------------------|------------------------------|---------------------------|
----------------5------------|----------------7p--5---------|---------------5-----5-----|
----------------5-----5------|----------------7p--5---------|---------------5-----5-----|
--L--7~--7~--7-----7-----7~--|--L--7~--7--L\---------7--7~--|--L--7~--7--7-----7-----7--|
-----------------------------|------------------------------|---------------------------|
-----------------------------|------------------------------|---------------------------|

                              Verse 3
  Q     Q     E    E  E  E      H        Q.     E      Q.     E  Q.     E
-----------------------------|----------------------|----------------------|
-----------------------------|----------------------|----------------------|
--------4b----4br--2---------|----------------------|----------------------|
--L\------------------4--0h--|--2--------2------0---|--2------4--L------0--|
-------------------------0---|--L--------0------0h--|--0------0--L------0--|
-----------------------------|----------------------|----------------------|


  E  E  E  E  Q.     E     E  E  Q    Q.     E     E  E  Q    Q.     E     E   E  E   E  
    E
------------------------|-----------------------|-----------------------|--------------------------|
------------------------|-----------------------|-----------------------|--------------------------|
------------------------|-----------------------|-----------------------|--------------------------|
--L--2--2--4--4------0--|--L--2--4----2------0--|--L--2--2----2------0--|--Lh--2--2h--4--4------0--|
--L--0--0--0--0------0--|--L--0--0----0------0--|--L--0--0----0------0--|--L---L--0---L--0------0--|
------------------------|-----------------------|-----------------------|--------------------------|


  E   E  Q    Q.     E     E  E  Q    Q.     E     E  E  H        E  E     E  E  H       
E  E
------------------------|-----------------------|-----------------------|-----------------------|
------------------------|-----------------------|--------------------3--|--L--------------------|
------------------------|-----------------------|--------------------2--|--L--------------------|
--Lh--2--4----4------0--|--L--2--4----2---------|-----2--L--------0--0--|--L--2--L--------L-----|
--L------0----0------0--|--L--0--0----0---------|-----0--L--------0--0--|--L--0--L--------L-----|
------------------------|--------------------3--|--L--------------------|--------------------3--|


  E  E  H        E  E     E  E  H        E  E     E  E  H        E  E     E  E  H        E E
-----------------------|-----------------------|-----------------------|-----------------------|
--------------------3--|--L--------------------|--------------------3--|--L--------------------|
--------------------2--|--L--------------------|--------------------2--|--L--------------0-----|
-----2--L--------0--0--|--L--2--L--------L-----|-----2--L--------L--0--|--L--2--L--------0--2--|
-----0--L--------0--0--|--L--0--L--------L-----|-----0--L--------L--0--|--L--0--L-----------0--|
--L--------------------|--------------------3--|--L--------------------|-----------------------|


  Q    Q    H           H        E  E  E  E     E   E  Q    Q.     E     E  E  E   E  Q. 
   E
---------------------|-----------------------|------------------------|-------------------------|
---------------------|-----------x--0--0-----|------------------------|-------------------------|
--x------------------|-----------x--0--0-----|------------------------|-------------------------|
--x------------------|-----------x--0--0--0--|--Lh--2--2----2------0--|--L--2--2h--4--4------0--|
--x------------------|--------------------0--|--L------0----0------0--|--L--0--0---L--0------0--|
---------------------|-----------------------|------------------------|-------------------------|


  E  E  E   E  Q.     E     E  E  Q    Q    E  E     E   E  Q    Q.     E
-------------------------|------------------------|------------------------|
-------------------------|------------------------|------------------------|
-------------------------|------------------------|------------------------|
--L--2--2h--4--4------0--|--L--2--4----2----0--0--|--Lh--2--2----2------0--|
--L--0--0---L--0------0--|--L--0--0----0----0--0--|--L------0----0------0--|
-------------------------|------------------------|------------------------|


  E  E  E   E  Q.     E     E  E  E   E  Q.     E     E  E  Q    Q    E  E
-------------------------|-------------------------|------------------------|
-------------------------|-------------------------|------------------------|
-------------------------|-------------------------|------------------------|
--L--2--2h--4--4------0--|--L--2--2h--4--4------0--|--L--2--4----2----0-----|
--L--0--0---L--0------0--|--L--0--0---L--0------0--|--L--0--0----0----0-----|
-------------------------|-------------------------|---------------------3--|


  E  E  Q    Q    E  E     E  E  Q    Q    E  E     E  E  Q    Q    E  E     E  E  Q    
   E  E
------------------------|------------------------|------------------------|------------------------|
---------------------3--|--L---------------------|---------------------3--|--L------------------3--|
-----2--2------------2--|--L--2--2---------------|-----2--2------------2--|--L--2--2------------2--|
-----2--2------------0--|--L--2--2---------------|-----2--2------------0--|--L--2--2------------0--|
-----0--0---------------|-----0--0---------------|-----0--0---------------|-----0--0---------------|
--L---------------------|---------------------3--|--L---------------------|------------------------|


  E  E  Q    H           W                   W                   W
----------------------|-------------------|-------------------|-------------------||
--L-------------------|-------------------|-------------------|-------------------||
--L-------------------|-------------------|-------------------|-------------------||
--L--2--2----L--------|--L----------------|--L----------------|--L----------------||
-----0--0----L--------|--L----------------|--L----------------|--L----------------||
----------------------|-------------------|-------------------|-------------------||


Duration Legend
---------------
W - whole
H - half
Q - quarter
E - 8th
S - 16th
T - 32nd
X - 64th
. - note dotted
|-n-|  - n-tuplets


Tablature Legend
----------------
L - tied note
x - dead note
g - grace note
(n) - ghost note
> - accentuded note
NH - natural harmonic
AH - artificial harmonic
TH - tapped harmonic
SH - semi harmonic
PH - pitch harmonic
h - hammer on
p - pull off
b - bend
br - bendRelease
pb - preBend
pbr - preBendRelease
brb - bendReleaseBend
\n/ - tremolo bar dip
\n - tremolo bar dive
-/n - tremolo bar Release up
/n\ - tremolo bar inverted dip
/n - tremolo bar return
-\n - tremolo bar Release down
S - shift slide
s - legato slide
/ -  slide into from below or out of upwards
\ -  slide into from above or out of downwards
~ - vibrato
W - wide vibrato
tr - trill
TP - tremolo picking
T - tapping
S - slap
P - pop
< - fade in
^ - brush up
v - brush down
Добавлено: 07.10.2013
Другие материалы по этой песне:
  • Аккорды и текст

Страница создана 07.10.2013
http://primanota.ru/the-upper-room/were-finished-with-finishing-school-chords.htm
Привет, Гость.
Предлагаем пройти революционный курс по гитаре.
Подарок от PrimaNota.Ru, забирай!