PrimaNota.ru - самый крупный в мире бесплатный архив песенных текстов, аккордов, табулатур и нот


The Upholsterers - I Aint Superstitious - таба, видео

Регистрация Запомнить меня
Войти через:  Facebook Google Twitter Vk Yandex Mail.ru

The Upholsterers - I Aint Superstitious - таба, видео

Печатать
Просмотров: 157
The Upholsterers - I Ain't Superstitious

To get the right sound, you best turn up the gain on a clean chanel
totally up, put totally up the trebble and activate the drive.

So here is the tab.

Enjoy.



     E   E  E  E  E  E   Q       E  E  E  E  H         
E||---------------------------|-----------------------|
B||---------------------------|-----------------------|
G||--8s--9--8--6--8--8s--9----|-----5-----5-----------|
D||--8s--9--8--6--8--8s--9----|-----4-----4-----------|
A||--8s--9--8--6--8--8s--9----|-----3-----3-----------|
E||---------------------------|-----------------------|


  E   E  E  E  E  E   Q       E  E  E  E  H           E  E  E  E  E   Q.      
---------------------------|-----------------------|-------------------------|
---------------------------|-----------------------|-------------------------|
--8s--9--8--6--8--8s--9----|-----5-----5-----------|--7--8--7--8--8s--9------|
--8s--9--8--6--8--8s--9----|-----4-----4-----------|--7--8--7--8--8s--9------|
--8s--9--8--6--8--8s--9----|-----3-----3-----------|--7--8--7--8--8s--9------|
---------------------------|-----------------------|-------------------------|


  E  E  E  E  H           E  E  E  E  H                  
-----------------------|------------------------|-------|
-----------------------|------------------------|-------|
-----5-----5-----------|--7--8--7--8--9b--------|-------|
-----4-----4-----------|--7--8--7--8--9b--------|-------|
-----3-----3-----------|--7--8--7--8--9b--------|-------|
-----------------------|------------------------|-------|


  |----3----|    |----3----|       |----3----|    |----3----|     
  Q    Q    Q    Q    Q    Q       Q    Q    Q    Q    Q    Q     
--------------------------------|--------------------------------|
--------------------------------|--------------------------------|
--6----6----6----6----6----6----|--6----6----6----6----6----6----|
--6----6----6----6----6----6----|--6----6----6----6----6----6----|
--4----4----4----4----4----4----|--4----4----4----4----4----4----|
--------------------------------|--------------------------------|


                 W                                              W             
  Q    Q    Q    Q       E  E  E  E  H           Q    Q    Q    Q             
----------------------|-----------------------|----------------------|-------|
----------------------|-----------------------|----------------------|-------|
----------------------|-----5-----5-----------|----------------------|-------|
----------------------|-----4-----4-----------|----------------------|-------|
----------------------|-----3-----3-----------|----------------------|-------|
--1----4----5----4----|-----------------------|--1----4----5----4----|-------|


  |----3----|    |----3----|       |----3----|    |----3----|     
  Q    Q    Q    Q    Q    Q       Q    Q    Q    Q    Q    Q     
--------------------------------|--------------------------------|
--------------------------------|--------------------------------|
--6----6----6----6----6----6----|--6----6----6----6----6----6----|
--6----6----6----6----6----6----|--6----6----6----6----6----6----|
--4----4----4----4----4----4----|--4----4----4----4----4----4----|
--------------------------------|--------------------------------|


                                         W                             
  E  E  E  E  H           Q    Q    Q    Q       E  E  E  E  H         
-----------------------|----------------------|-----------------------|
-----------------------|----------------------|-----------------------|
-----5-----5-----------|----------------------|-----5-----5-----------|
-----4-----4-----------|----------------------|-----4-----4-----------|
-----3-----3-----------|----------------------|-----3-----3-----------|
-----------------------|--1----4----5----4----|-----------------------|


                 W                                              
                                 |----3----|    |----3----|     
  Q    Q    Q    Q               Q    Q    Q    Q    Q    Q     
----------------------|-------|--------------------------------|
----------------------|-------|--------------------------------|
----------------------|-------|--6----6----6----6----6----6----|
----------------------|-------|--6----6----6----6----6----6----|
----------------------|-------|--4----4----4----4----4----4----|
--1----4----5----4----|-------|--------------------------------|


                                        W                             
  E  E.  H        E.     Q    Q    Q    Q       E  E  E  E  H         
----------------------|----------------------|-----------------------|
----------------------|----------------------|-----------------------|
--3-------------------|----------------------|-----5-----5-----------|
--3-------------------|----------------------|-----4-----4-----------|
--1-------------------|----------------------|-----3-----3-----------|
----------------------|--1----4----5----4----|-----------------------|


                 W                                              W     
  Q    Q    Q    Q       E  E  E  E  H           Q    Q    Q    Q     
----------------------|-----------------------|----------------------|
----------------------|-----------------------|----------------------|
----------------------|-----5-----5-----------|----------------------|
----------------------|-----4-----4-----------|----------------------|
----------------------|-----3-----3-----------|----------------------|
--1----4----5----4----|-----------------------|--1----4----5----4----|


  E  E  E  E  H           E  E  E  E  H                  
-----------------------|------------------------|-------|
-----------------------|------------------------|-------|
-----5-----5-----------|--7--8--7--8--9b--------|-------|
-----4-----4-----------|--7--8--7--8--9b--------|-------|
-----3-----3-----------|--7--8--7--8--9b--------|-------|
-----------------------|------------------------|-------|


  |----3----|    |----3----|       |----3----|    |----3----|     
  Q    Q    Q    Q    Q    Q       Q    Q    Q    Q    Q    Q     
--------------------------------|--------------------------------|
--------------------------------|--------------------------------|
--6----6----6----6----6----6----|--6----6----6----6----6----6----|
--6----6----6----6----6----6----|--6----6----6----6----6----6----|
--4----4----4----4----4----4----|--4----4----4----4----4----4----|
--------------------------------|--------------------------------|


   E   E   E   E   H            E  E  E  E  H           E  E   H        E  E   
-----------------------------|-----------------------|------------------------|
-----------------------------|-----------------------|------------------------|
--14--16--14--16--14b--------|-----5-----5-----------|--------12--------------|
--14--15--14--15--14b--------|-----4-----4-----------|--8--9--11--------9--8--|
--14--14--14--14--14b--------|-----3-----3-----------|--8--9--10--------9--8--|
-----------------------------|-----------------------|------------------------|


          |----3----|    |----3----|       |----3----|    |----3----|     
          Q    Q    Q    Q    Q    Q       Q    Q    Q    Q    Q    Q     
-------|--------------------------------|--------------------------------|
-------|--------------------------------|--------------------------------|
-------|--6----6----6----6----6----6----|--6----6----6----6----6----6----|
-------|--6----6----6----6----6----6----|--6----6----6----6----6----6----|
-------|--4----4----4----4----4----4----|--4----4----4----4----4----4----|
-------|--------------------------------|--------------------------------|


  Q     E    E   E  E   E   E     E  E  E  E  H           Q    Q    Q    Q      
-------------------------------|-----------------------|-----------------------|
-------------------------------|-----------------------|-----------------------|
--3----10s--12--10--9--10--11--|-----5-----5-----------|-----------------------|
--3----10s--12--10--9--10--11--|-----4-----4-----------|-----------------------|
--1----------------------------|-----3-----3-----------|-----------------------|
-------------------------------|-----------------------|--1----4----5----4b----|


               |----3----|    |----3----|                            
  Q.     E     Q    Q    Q    Q    Q    Q       E  E.  H        E.   
------------|--------------------------------|----------------------|
------------|--------------------------------|----------------------|
------------|--6----6----6----6----6----6----|--3-------------------|
------------|--6----6----6----6----6----6----|--3-------------------|
------------|--4----4----4----4----4----4----|--1-------------------|
--L---------|--------------------------------|----------------------|


                 W                                              W     
  Q    Q    Q    Q       E  E  E  E  H           Q    Q    Q    Q     
----------------------|-----------------------|----------------------|
----------------------|-----------------------|----------------------|
----------------------|-----5-----5-----------|----------------------|
----------------------|-----4-----4-----------|----------------------|
----------------------|-----3-----3-----------|----------------------|
--1----4----5----4----|-----------------------|--1----4----5----4----|


                                         W                             
  E  E  E  E  H           Q    Q    Q    Q       E  E  E  E  H         
-----------------------|----------------------|-----------------------|
-----------------------|----------------------|-----------------------|
-----5-----5-----------|----------------------|-----5-----5-----------|
-----4-----4-----------|----------------------|-----4-----4-----------|
-----3-----3-----------|----------------------|-----3-----3-----------|
-----------------------|--1----4----5----4----|-----------------------|


                 W                              
  Q    Q    Q    Q       E  E  E  E  H          
----------------------|-----------------------||
----------------------|-----------------------||
----------------------|-----5-----5-----------||
----------------------|-----4-----4-----------||
----------------------|-----3-----3-----------||
--1----4----5----4----|-----------------------||




Duration Legend
---------------
W - whole
H - half
Q - quarter
E - 8th
S - 16th
T - 32nd
X - 64th
. - note dotted
|-n-|  - n-tuplets


Tablature Legend
----------------
L - tied note
x - dead note
g - grace note
(n) - ghost note
> - accentuded note
NH - natural harmonic
AH - artificial harmonic
TH - tapped harmonic
SH - semi harmonic
PH - pitch harmonic
h - hammer on
p - pull off
b - bend
br - bendRelease
pb - preBend
pbr - preBendRelease
brb - bendReleaseBend
\n/ - tremolo bar dip
\n - tremolo bar dive
-/n - tremolo bar Release up
/n\ - tremolo bar inverted dip
/n - tremolo bar return
-\n - tremolo bar Release down
S - shift slide
s - legato slide
/ -  slide into from below or out of upwards
\ -  slide into from above or out of downwards
~ - vibrato
W - wide vibrato
tr - trill
TP - tremolo picking
T - tapping
S - slap
P - pop
< - fade in
^ - brush up
v - brush down
Добавлено: 28.04.2012
Вам также может быть интересно:
Другие материалы по этой песне:
  • Аккорды и текст

Страница создана 28.04.2012
http://primanota.ru/the-upholsterers/i-aint-superstitious-chords.htm
Привет, Гость.
Предлагаем пройти революционный курс по гитаре.
Подарок от PrimaNota.Ru, забирай!