PrimaNota.ru - самый крупный в мире бесплатный архив песенных текстов, аккордов, табулатур и нот


The Unwinding Hours - Solstice - таба, видео

Регистрация Запомнить меня
Войти через:  Facebook Google Twitter Vk Yandex Mail.ru

The Unwinding Hours - Solstice - таба, видео

Печатать
Просмотров: 42
The Unwinding Hours
Solstice

Tuning- DADF#AD
Capo on 2nd fret

Intro

D--------------------------0-----0-----|
A--------0-----0---0---0-----0-----0---|
F#-------------------------------------|
D--------------------------------------|
A--10h12----10---9---0-----------------|
D------------------------9-----5-------|  x3

D-------------0------------------------|
A---------0-------0--------------------|
F#----0--------------------------------|
D--------------------------------------|
A--------------------------------------|
D---0---0---0---0---0------------------|

Verse

D--------------------------0-----0-----|
A--------0-----0---0---0-----0-----0---|
F#-------------------------------------|
D--------------------------------------|
A--10h12----10---9---0-----------------|
D------------------------9-----5-------|  x8

Chorus

D-----0-----0-----0-----0-----0-----0-----0-----0-----0-----0-----0-----0----|
A----------------------------------------------------------------------------|
F#------7-----7-----7-----7-----7-----7-----7-----7-----5-----5-----5-----5--|
D----------------------------------------------------------------------------|
A----------------------------------------------------------------------------|
D---7-----7-----7-----7-----0-----0-----0-----0-----5-----5-----5-----5------|

D-----0------0------0-----0-----0-----0-----0-----0-----0-----0-----0-----0--|
A----------------------------------------------------------------------------|
F#------10-----10-----7-----7-----5-----5-----5-----5-----5-----5-----5----5-|
D----------------------------------------------------------------------------|
A----------------------------------------------------------------------------|
D---9------9------7-----7-----5-----5-----5-----5-----0-----0-----0-----0----|

D-----0------0------0------|
A--------------------------|
F#------10-----10-----7----|
D--------------------------|
A--------------------------|
D---9------9------7-----7--|

Repeat intro

D--------------------------0-----0-----|
A--------0-----0---0---0-----0-----0---|
F#-------------------------------------|
D--------------------------------------|
A--10h12----10---9---0-----------------|
D------------------------9-----5-------|  x3

D-------------0------------------------|
A---------0-------0--------------------|
F#----0--------------------------------|
D--------------------------------------|
A--------------------------------------|
D---0---0---0---0---0------------------|

Verse

D--------------------------0-----0-----|
A--------0-----0---0---0-----0-----0---|
F#-------------------------------------|
D--------------------------------------|
A--10h12----10---9---0-----------------|
D------------------------9-----5-------|  x8

Chorus

D-----0-----0-----0-----0-----0-----0-----0-----0-----0-----0-----0-----0----|
A----------------------------------------------------------------------------|
F#------7-----7-----7-----7-----7-----7-----7-----7-----5-----5-----5-----5--|
D----------------------------------------------------------------------------|
A----------------------------------------------------------------------------|
D---7-----7-----7-----7-----0-----0-----0-----0-----5-----5-----5-----5------|

D-----0------0------0-----0-----0-----0-----0-----0-----0------0------0------0----|
A---------------------------------------------------------------------------------|
F#------10-----10-----7-----7-----5-----5-----5-----5-----10-----10-----10-----10-|
D---------------------------------------------------------------------------------|
A---------------------------------------------------------------------------------|
D---9------9------7-----7-----5-----5-----5-----5-----9------9------9------9------|

D-----0-----0-----0-----0-----0-----0-----0-----0-----0-----0-----0-----0----|
A----------------------------------------------------------------------------|
F#------7-----7-----7-----7-----5-----5-----5-----5-----5-----5-----5-----5--|
D----------------------------------------------------------------------------|
A----------------------------------------------------------------------------|
D---7-----7-----7-----7-----5-----5-----5-----5-----5-----5-----5-----5------|

D-----0-----0-----0-----0-----0-----0----0----|
A-------0-----0-----0-----0-----0-----0--0----|
F#---------------------------------------0----|
D----------------------------------------0----|
A----------------------------------------0----|
D---0-----0-----0-----0-----0-----0------0----|
Добавлено: 21.12.2015
Другие материалы по этой песне:

Страница создана 24.04.2012
http://primanota.ru/the-unwinding-hours/solstice-chords.htm
Привет, Гость.
Предлагаем пройти революционный курс по гитаре.
Подарок от PrimaNota.Ru, забирай!