PrimaNota.ru - самый крупный в мире бесплатный архив песенных текстов, аккордов, табулатур и нот


The Undisputed Truth - Papa Was A Rollin Stone - бас-таба, видео

Регистрация Запомнить меня
Войти через:  Facebook Google Twitter Vk Yandex Mail.ru

The Undisputed Truth - Papa Was A Rollin Stone - бас-таба, видео

Печатать
Просмотров: 100
Авторы: Norman Whitfield, Barrett Strong

Tabbed by: 6METAL6BASSIST6
E-mail: petergriffinav@gmail.com

Tuning: EADG

G|----------------------------------------------------------------|
D|----------------6---8-------------------------------------------| x4
A|------------8-----------8---6---------------4---6---8---4-------|
E|6---------------------------------------------------------------|

G|----------------------------------------------------------------|
D|----------------------------------------------------------------|
A|----------------------------------------------------------------|
E|6---------------6-----------6-------------------1-------4-------|

G|----------------------------------------------------6-/-10--6---|
D|--------------------------------------------6---8---------------|
A|----------------4-------------------6---8-----------------------|
E|6-------------------4-------6-----------------------------------|

G|----------------------------------------------------------------|
D|----------------------------------------------------------------|
A|----------------------------------------------------------------|
E|6---------------6-----------6-------------------1-------4-------|

G|----------------------------------------------------------------|
D|----------------------------------------------------------------|
A|----------------4-----------------------------------------------|
E|6-------------------4-------6-----------------------------------|

0:33 this part is repeated through the rest of the song.

G|----------------------------------------------------------------|
D|----------------------------------------------------------------|
A|----------------------------------------------------------------|
E|6---------------6-----------6-------------------1-------4-------|

G|----------------------------------------------------------------|
D|----------------------------------------------------------------|
A|----------------4-----------------------------------------------|
E|6-------------------4-------6-------------------1-------4-------|

G|----------------------------------------------------------------|
D|----------------------------------------------------------------|
A|----------------------------------------------------------------|
E|6---------------6-----------6-------------------1-------4-------|

G|----------------------------------------------------6-/-10--6---|
D|--------------------------------------------6---8---------------|
A|----------------4-------------------6---8-----------------------|
E|6-------------------4-------6-----------------------------------|
Добавлено: 11.07.2015
Вам также может быть интересно:
Другие материалы по этой песне:
  • Аккорды и текст

Страница создана 11.07.2015
http://primanota.ru/the-undisputed-truth/papa-was-a-rollin-stone-chords.htm
Привет, Гость.
Предлагаем пройти революционный курс по гитаре.
Подарок от PrimaNota.Ru, забирай!