PrimaNota.ru - самый крупный в мире бесплатный архив песенных текстов, аккордов, табулатур и нот


The Twilight Singers - The Killer - текст песни, таба, видео

Регистрация Запомнить меня
Войти через:  Facebook Google Twitter Vk Yandex Mail.ru

The Twilight Singers - The Killer - текст песни, таба, видео

Печатать
Просмотров: 115
Intro/Verse/Outro
Guitar 1
e|----------------------------------|
B|----------------------------------|
G|------8-------8------8--------8---|
D|--8---8---8---8---8--8---8---6-6--|
A|-6-6-----6-6-----6-6----6-6-------|
E|----------------------------------|

Pre Chorus “Your drivers come..../Your drivers waiting/gone....” (x2)
Guitar 1
e|------------------------------------------------------------------------------------|
B|------------------------------------------------------------------------------------|
G|---------8-----------8-------------8-----------8---------8-------8------8--------8--|
D|----8----8------8----8--------8----8------8----8-----8---8---8---8---8--8---8---6-6-|
A|-10---10-----10---10-------11---11-----11---11------6-6-----6-6-----6-6----6-6------|
E|------------------------------------------------------------------------------------|

Guitar 2
e|----|
B|----|
G|----|
D|-5~-|
A|-5~-|
E|-3~-|


Chorus
Guitar
e|-------------------------------------------------------|
B|-------------------------------------------------------|
G|-------------------------------------------------------|
D|-8------10------6------8--------10------8------6-------|
A|-8-(x8)-10-(x8)-6-(x8)-8-(x8)---10-(x8)-8-(x8)-6-(x16)-|
E|-6------8-------4------6--------8-------6------4-------|

Verse
Guitar 1 repeats verse, then pre chorus


Guitar 2
 (2.00)  (2.12)     (2.34)      (2.40)
e|------|---------|-----------|--------------|
B|-(6~)-|---------|-----------|--------------|
G|--8~--|-88-8-8~-|-----------|--------------|
D|--8~--|-88-8-8~-|-10\8-/10~-|-10\8--/--10~-|
A|--6~--|------6~-|-10\8-/10~-|-10\8--/--10~-|
E|------|---------|-8-\6-/8-~-|-8-\6--/--8-~-|

Pre Chorus (2.53)
e|---------|
B|---------|
G|---------|
D|-5~---6~-|
A|-5~---6~-|
E|-3~---4~-|

Piano at 2.46
e|-----------------------------------------------------------------------------------------------|
B|--11--11--11--11---11---9---9---8---8------------------------11--11--11--11---11---9---9---8--8|
G|8---8---8---8----8----8---8---8---8---10-10-10-10--8-10-8--8---8---8---8----8----8---8---8---8-|
D|-----------------------------------------------------------------------------------------------|
A|-----------------------------------------------------------------------------------------------|
E|-----------------------------------------------------------------------------------------------|


Last Chorus (2.59)
Guitar 1
e|---------------------------------------------------------------|
B|---------------------------------------------------------------|
G|---------------------------------------------------------------|
D|-8------10------6------8---------10------8------6-------8------|
A|-8-(x8)-10-(x8)-6-(x8)-8-(x8)----10-(x8)-8-(x8)-6-(x8)--8-(x8)-|
E|-6------8-------4------6---------8-------6------4-------6------|

e|--------------------------------------------------|
B|--------------------------------------------------|
G|--------------------------------------------------|
D|-10------8------6-------8--------10------8------6~|
A|-10-(x8)-8-(x8)-6-(x8)--8-(x8)---10-(x8)-8-(x8)-6~|
E|-8-------6------4-------6--------8-------6------4~|

Guitar 2 (tricky to hear at times)
e|-------------------------------------------------------------------------|
B|-------------------9-8---9-8---9-8-------------------------------8-8-9-8-|
G|-8-7---8-7---8-7-------8-----8-------8-7---8-7---8-7---8-7---8-----------|
D|-----8-----8-----------------------------8-----8-----------8-------------|
A|-------------------------------------------------------------------------|
E|-------------------------------------------------------------------------|

e|-------------------------------------------------------------------------|
B|-------------------------------------------------------------------------|
G|-8-7---8-7---8-7---8-7---8-7---8-7----8-7---8-7---8-7---8-7---8-7---8-7--|
D|-----8-----8-----------8-----8------------8-----8-----------8-----8------|
A|-------------------------------------------------------------------------|
E|-------------------------------------------------------------------------|

then this until outro
                          (3.45)
e|--------------------|------------------|
B|--------------------|------------------|
G|-10-8-7-8-----7---8-|-8--10--8-10-8-10-|
D|------------8---8---|------------------|
A|--------------------|------------------|
E|--------------------|------------------|

Outro
Guitar 2
   (x8)      (x2)             (x4)
e|-----|--------------------|-----|---------------------|
B|-----|--------------------|-----|---------------------|
G|-8---|-10-8-7-8-----7---8-|-8---|---10---10---7---8---|
D|---8-|------------8---8---|---8-|------8----8---8---8-|
A|-----|--------------------|-----|---------------------|
E|-----|--------------------|-----|---------------------|

Third guitar repeats this
e|---|
B|---|
G|-8-|
D|-8-|
A|-6-|
E|---|
Добавлено: 29.07.2012
Другие материалы по этой песне:
  • Аккорды и текст

Страница создана 18.06.2012
http://primanota.ru/the-twilight-singers/the-killer-chords.htm
Привет, Гость.
Предлагаем пройти революционный курс по гитаре.
Подарок от PrimaNota.Ru, забирай!