PrimaNota.ru - самый крупный в мире бесплатный архив песенных текстов, аккордов, табулатур и нот


The Trews - Tired Of Waiting - таба, бас-таба, драм-таба, видео

Регистрация Запомнить меня
Войти через:  Facebook Google Twitter Vk Yandex Mail.ru

The Trews - Tired Of Waiting - таба, бас-таба, драм-таба, видео

Печатать
Просмотров: 134
this is an amazing song, it's practicaly an honor to tab it.

tuning-standard-EADGBe

Intro/Verse/Chorus/solo (guitar one)

1-----0------------0----------------------|
2-----0------------2----------------------|
3-----1------------2----------------------|
4-----2------------2----------------------|
5-----2------------0----------------------|
6-----0-----------------------------------|

Intro (guitar 2)

1-----------------------------------------|
2-----------------------------------------|
3-2442424424--------4664646646-6-7-6------|
4-2222222222-4-5-6--7777777777------------|
5-----------------------------------------|
6-----------------------------------------|

Verse 1 (guitar 2)

1------------------------------------------|
2------------------------------------------|
3------------------------------------------|
4--0-22---0-2------------------------------|
5------0-2---------------------------------|
6-------------3-55-3-5-4-3-----------------|

The Chorus for guitar 1 is the same for guitar 2

Verse 1 (guitar 2)

1------------------------------------------|
2------------------------------------------|
3------------------------------------------|
4--0-22---0-2------------------------------|
5------0-2---------------------------------|
6-------------3-55-3-5-4-3-----------------|

Verses 2+3 (guitar 2)

1--------------0-0---------------0-0-------|
2--------------0-0---------------2-2-------|
3--------------1-1---------------2-2-------|
4--0-22---0-2--2-2---------------2-2-------|
5------0-2---------------------------------|
6-------------------3-55-3-5-4-3-----------|

Bridge (both guitars)

1--2---0---2---0---2---0---2---2------------|
2--2---0---2---0---2---0---2---4------------|
3--2---1---2---1---2---1---2---4------------|
4--4---2---4---2---4---2---4---4------------|
5--4---2---4---2---4---2---4---2------------|
6--2---0---2---0---2---0---2----------------|

Solo (guitar 2)

1------------------------------------------|
2------------------------------------------|
3-------9-11-9---13-9-4-2-1-2--------------|
4-2-6-9-9-11-9---14-9-4-2-2-2--------------|  x2
5-2-7-9------------------------------------|
6------------------------------------------|

Outro

1----------------|
2----------------|
3----------------| try to get some feedback
4-6-2------------|
5-7-2-2-0--------|
6--------4b5-----|

thanks for reading my tab, for questions, e-mail me at horny_devil183@hotmail.com
Добавлено: 30.04.2012
Другие материалы по этой песне:

Страница создана 29.03.2012
http://primanota.ru/the-trews/tired-of-waiting-chords.htm
Привет, Гость.
Предлагаем пройти революционный курс по гитаре.
Подарок от PrimaNota.Ru, забирай!