PrimaNota.ru - самый крупный в мире бесплатный архив песенных текстов, аккордов, табулатур и нот


The Trees And The Wild - Irish Girl - таба, видео

Регистрация Запомнить меня
Войти через:  Facebook Google Twitter Vk Yandex Mail.ru

The Trees And The Wild - Irish Girl - таба, видео

Печатать
Просмотров: 32
-------------------------------------------------------------------------------
                  IRISH GIRL - The Trees and The Wild
-------------------------------------------------------------------------------
Tabbed by: pineappleaffair
E-mail: nunu_rampai@yahoo.co.id

Tuning: Standard


Intro 
e|--------------------7---10---9-------------------------7---10---9----------|
B|-------8---7---10----------------10-------8---7---10----------------10~----|
G|---9----------------------------------9------------------------------------|
D|---9----------------------------------9------------------------------------|
A|---------------------------------------------------------------------------|
E|---------------------------------------------------------------------------|


Main Riff
e|---------------------------------------------------------------------------|
B|---8--10/12--8--8h10--8-----------8h10--8h10~----8--10/12~-----------------|
G|-------------------------9--7--9-------------------------------------------|
D|---------------------------------------------------------------------------|
A|---------------------------------------------------------------------------|
E|---------------------------------------------------------------------------|
 |
e|---------------------------------------------------------------------------|
B|---8---8-----------------------7---7----------------------8---8------------|
G|---7---7-----------------------7---7----------------------7---7------------|
D|---9---9-----------------------7---7----------------------9---9------------|
A|---7---7--------------------------------------------------7---7------------|
E|-------------------------------7---7---------------------------------------|

e|---10h12--10---------------------------------------------------------------|
B|--------------10h12--8--10/12--8~---8--8h10--8-----------8h10--7--8--------|
G|------------------------------------------------9--7--9--------------9~----|
D|---------------------------------------------------------------------------|
A|---------------------------------------------------------------------------|
E|---------------------------------------------------------------------------|
 |
e|---------------------------------------------------------------------------|
B|---7---7-----------------------8---8------------------7---7----------------|
G|---7---7-----------------------7---7------------------7---7----------------|
D|---7---7-----------------------9---9------------------7---7----------------|
A|-------------------------------7---7---------------------------------------|
E|---7---7----------------------------------------------7---7----------------|


e|---------------------------------------------------------------------------|
B|---------------------------------------------------------------------------|
G|---------------------------------------------------------------------------|
D|---------------------------------------------------------------------------|
A|---------------------------------------------------------------------------|
E|---------------------------------------------------------------------------|
 |
e|---------------------------------------------------------------------------|
B|---8---8-----------------------7---7---------------------------------------|
G|---7---7-----------------------7---7---------------------------------------|
D|---9---9-----------------------7---7---------------------------------------|
A|---7---7-------------------------------------------------------------------|
E|-------------------------------7---7---------------------------------------|


Verse
e|---------------------------------------------------------------------------|
B|---8~---------------12~--------------8~---------------12~------------------|
G|---7~---------------12~--------------7~---------------12~------------------|
D|---9~---------------12~--------------9~---------------12~------------------|
A|---------------------------------------------------------------------------|
E|---------------------------------------------------------------------------|
 |
e|---------------------------------------------------------------------------|
B|---8---8------------7---7------------8---8------------7---7----------------|
G|---7---7------------7---7------------7---7------------7---7----------------|
D|---9---9------------7---7------------9---9------------7---7----------------|
A|---7---7-----------------------------7---7---------------------------------|
E|--------------------7---7-----------------------------7---7----------------|

Bridge
e|---------------------------------------------------------------------------|
B|---------8--------------7--------------8--------------7--------------------|
G|-------9--------------7--------------9--------------7----------------------|
D|-----9--------------7--------------9--------------7------------------------|
A|---------------------------------------------------------------------------|
E|---8--------------7--------------8--------------7--------------------------|

e|-----------------------------------------------------------------8~--------|
B|---------8--------------7--------------8---------------8---------8~--------|
G|-------9--------------7--------------9---------------9-----------8~--------|
D|-----9--------------7--------------9--------------10-----------------------|
A|---------------------------------------------------------------------------|
E|---8--------------7--------------8--------------10-------------------------|


To Main Riff

To Verse

Bridge 2
e|---------------------------------------------------------------------------|
B|---------8--------------7--------------8--------------7--------------------|
G|-------9--------------7--------------9--------------7----------------------|
D|-----9--------------7--------------9--------------7------------------------|
A|---------------------------------------------------------------------------|
E|---8--------------7--------------8--------------7--------------------------|

e|-----------------------------------------------------------------10~-------|
B|---------8--------------7--------------8---------------8---------8~--------|
G|-------9--------------7--------------9---------------9-----------8~--------|
D|-----9--------------7--------------9--------------10-----------------------|
A|---------------------------------------------------------------------------|
E|---8--------------7--------------8--------------10-------------------------|


Chorus (2x)

e|-------3-----3---------3-----3---------3-----3---------3---5-3-------------|
B|-----3-----3-----3---3-----3-----3---3-----3-----3---3---------3-----------|
G|---4-----4-----4---5-----5-----5---4-----4-----4---5-----5-------5---------|
D|---------------------------------------------------------------------------|
A|---------------------------------------------------------------------------|
E|---------------------------------------------------------------------------|
 |
e|---------------------------------------------------------------------------|
B|---3---3-------------------------------------------------------------------|
G|---4---4-----------10---10---------9---9-----------9---9-------------------|
D|---5---5-----------10---10---------9---9-----------9---9-------------------|
A|---------------------------------------------------------------------------|
E|---3---3-----------10---10---------8---8-----------8---8-------------------|


e|-------3-----3---------3-----3---------3-----3---------3---5-3-------------|
B|-----3-----3-----3---3-----3-----3---3-----3-----3---3---------3-----------|
G|---4-----4-----4---5-----5-----5---4-----4-----4---5-----5-------5---------|
D|---------------------------------------------------------------------------|
A|---------------------------------------------------------------------------|
E|---------------------------------------------------------------------------|
 |
e|---------------------------------------------------------------------------|
B|---3---3-------------------------------------------------------------------|
G|---4---4-----------10---10---------9---9-----------9---9-------------------|
D|---5---5-----------10---10---------9---9-----------9---9-------------------|
A|---------------------------------------------------------------------------|
E|---3---3-----------10---10---------8---8-----------8---8-------------------|

Main Riff
e|---------------------------------------------------------------------------|
B|---8--10/12--8--8h10--8-----------8h10--8h10~----8--10/12~-----------------|
G|-------------------------9--7--9-------------------------------------------|
D|---------------------------------------------------------------------------|
A|---------------------------------------------------------------------------|
E|---------------------------------------------------------------------------|
 |
e|---------------------------------------------------------------------------|
B|---8---------------------------7---7----------------------8---8------------|
G|---7---------------------------7---7----------------------7---7------------|
D|---9---------------------------7---7----------------------9---9------------|
A|---7------------------------------------------------------7---7------------|
E|-------------------------------7---7---------------------------------------|

e|---10h12--10---------------------------------------------------------------|
B|--------------10h12--8--10/12--8~---8--8h10--8-----------8h10--7--8--------|
G|------------------------------------------------9--7--9--------------9~----|
D|---------------------------------------------------------------------------|
A|---------------------------------------------------------------------------|
E|---------------------------------------------------------------------------|
 |
e|---------------------------------------------------------------------------|
B|---7---7-----------------------8---8------------------7---7----------------|
G|---7---7-----------------------7---7------------------7---7----------------|
D|---7---7-----------------------9---9------------------7---7----------------|
A|-------------------------------7---7---------------------------------------|
E|---7---7----------------------------------------------7---7----------------|


e|---------------------------------------------------------------------------|
B|----------------------------------7--8--10---10--8-------------------------|
G|----------------------------7--9--------------------9~---------------------|
D|---------------------------------------------------------------------------|
A|---------------------------------------------------------------------------|
E|---------------------------------------------------------------------------|
 |
e|---------------------------------------------------------------------------|
B|---8---8-----------------------7---7---------------------------------------|
G|---7---7-----------------------7---7---------------------------------------|
D|---9---9-----------------------7---7---------------------------------------|
A|---7---7-------------------------------------------------------------------|
E|-------------------------------7---7---------------------------------------|

Verse

Bridge 2

Chorus 2
e|---------------------------------------------------------------------------|
B|---3-3-3-3-3-3-3-3---------------------------------------------------------|
G|---4-4-4-4-4-4-4-4---10-10-10-10-10-10-10-10-------------------------------|
D|---5-5-5-5-5-5-5-5---10-10-10-10-10-10-10-10-------------------------------|
A|---------------------------------------------------------------------------|
E|---3-3-3-3-3-3-3-3---10-10-10-10-10-10-10-10-------------------------------|

e|---------------------------------------------------------------------------|
B|---------------------------------------------------------------------------|
G|---9-9-9-9-9-9-9-9----9-9-9-9-9-9-9-9--------------------------------------|
D|---9-9-9-9-9-9-9-9----9-9-9-9-9-9-9-9--------------------------------------|
A|---------------------------------------------------------------------------|
E|---8-8-8-8-8-8-8-8----8-8-8-8-8-8-8-8--------------------------------------|


Interlude
e|---11-11-------------------------------11-11-------------------------------|
B|-------------12-12-------------------------------12-12---------------------|
G|---------------------13-11-----13-13-----------------------13-11\--9-------|
D|---------------------------------------------------------------------------|
A|---------------------------------------------------------------------------|
E|---------------------------------------------------------------------------|
 |
e|---------------------------------------------------------------------------|
B|---4-4-4-4-4-4-4-4---2-2-2-2-2-2-2-2---4-4-4-4-4-4-4-4---2-2-2-2-2-2-2-2---|
G|---4-4-4-4-4-4-4-4---2-2-2-2-2-2-2-2---4-4-4-4-4-4-4-4---2-2-2-2-2-2-2-2---|
D|---6-6-6-6-6-6-6-6---4-4-4-4-4-4-4-4---6-6-6-6-6-6-6-6---4-4-4-4-4-4-4-4---|
A|---------------------------------------------------------------------------|
E|---4-4-4-4-4-4-4-4---2-2-2-2-2-2-2-2---4-4-4-4-4-4-4-4---2-2-2-2-2-2-2-2---|

e|---11-11-------------------------------11-11-------------------------------|
B|-----------12-12-------------------------------12-12-----------------------|
G|---------------------13-11---13-13-----------------------13-11\---9--------|
D|---------------------------------------------------------------------------|
A|---------------------------------------------------------------------------|
E|---------------------------------------------------------------------------|
 |
e|---------------------------------------------------------------------------|
B|---4-4-4-4-4-4-4-4---2-2-2-2-2-2-2-2---4-4-4-4-4-4-4-4---2-2-2-2-2-2-2-2---|
G|---4-4-4-4-4-4-4-4---2-2-2-2-2-2-2-2---4-4-4-4-4-4-4-4---2-2-2-2-2-2-2-2---|
D|---6-6-6-6-6-6-6-6---4-4-4-4-4-4-4-4---6-6-6-6-6-6-6-6---4-4-4-4-4-4-4-4---|
A|---------------------------------------------------------------------------|
E|---4-4-4-4-4-4-4-4---2-2-2-2-2-2-2-2---4-4-4-4-4-4-4-4---2-2-2-2-2-2-2-2---|


Drum / Percussion Part


Interlude 2 (Use delay in adequate setting)


e|---14--12--------------12--------------------------------------------------|
B|-----------12------12------14--12------------------------------------------|
G|---------------13------------------13--11--11--11/13--13-------------------|
D|---------------------------------------------------------------------------|
A|---------------------------------------------------------------------------|
E|---------------------------------------------------------------------------|

e|---14--12--------------12--------------------------------------------------|
B|-----------12------12------14--12------------------------------------------|
G|---------------13------------------13--11--11--11\9---9--------------------|
D|---------------------------------------------------------------------------|
A|---------------------------------------------------------------------------|
E|---------------------------------------------------------------------------|

e|---14--12--------------12--------------------------------------------------|
B|-----------12------12------14--12------------------------------------------|
G|---------------13------------------13--11--11--11/13--13-------------------|
D|---------------------------------------------------------------------------|
A|---------------------------------------------------------------------------|
E|---------------------------------------------------------------------------|

e|---14--12--------------12--------------------------------------------------|
B|-----------12------12------14--12------------------------------------------|
G|---------------13------------------13--11--11--11\9---9--------------------|
D|---------------------------------------------------------------------------|
A|---------------------------------------------------------------------------|
E|---------------------------------------------------------------------------|


e|---14--12--------------12--------------------------------------------------|
B|-----------12------12------14--12------------------------------------------|
G|---------------13------------------13--11--11--11/13--13-------------------|
D|---------------------------------------------------------------------------|
A|---------------------------------------------------------------------------|
E|---------------------------------------------------------------------------|
 |
e|-------0--0--0--0--0--0--0--0--0-------0--0--0--0--0--0--0--0--0-----------|
B|-------0--0--0--0--0--0--0--0--0-------0--0--0--0--0--0--0--0--0-----------|
G|-------1--1--1--1--1--1--1--1--1-------2--2--2--2--2--2--2--2--2-----------|
D|-------2--2--2--2--2--2--2--2--2-------2--2--2--2--2--2--2--2--2-----------|
A|-------2--2--2--2--2--2--2--2--2-------0--0--0--0--0--0--0--0--0-----------|
E|-------0--0--0--0--0--0--0--0--0-------------------------------------------|


e|---14--12--------------12--------------------------------------------------|
B|-----------12------12------14--12------------------------------------------|
G|---------------13------------------13--11--11--11\9---9--------------------|
D|---------------------------------------------------------------------------|
A|---------------------------------------------------------------------------|
E|---------------------------------------------------------------------------|
 |
e|-------0--0--0--0--0--0--0--0--0-------0--0--0--0--0--0--0--0--0-----------|
B|-------0--0--0--0--0--0--0--0--0-------0--0--0--0--0--0--0--0--0-----------|
G|-------1--1--1--1--1--1--1--1--1-------2--2--2--2--2--2--2--2--2-----------|
D|-------2--2--2--2--2--2--2--2--2-------2--2--2--2--2--2--2--2--2-----------|
A|-------2--2--2--2--2--2--2--2--2-------0--0--0--0--0--0--0--0--0-----------|
E|-------0--0--0--0--0--0--0--0--0-------------------------------------------|

e|---14--12--------------12--------------------------------------------------|
B|-----------12------12------14--12------------------------------------------|
G|---------------13------------------13--11--11--11/13--13-------------------|
D|---------------------------------------------------------------------------|
A|---------------------------------------------------------------------------|
E|---------------------------------------------------------------------------|
 |
e|-------0--0--0--0--0--0--0--0--0-------0--0--0--0--0--0--0--0--0-----------|
B|-------0--0--0--0--0--0--0--0--0-------0--0--0--0--0--0--0--0--0-----------|
G|-------1--1--1--1--1--1--1--1--1-------2--2--2--2--2--2--2--2--2-----------|
D|-------2--2--2--2--2--2--2--2--2-------2--2--2--2--2--2--2--2--2-----------|
A|-------2--2--2--2--2--2--2--2--2-------0--0--0--0--0--0--0--0--0-----------|
E|-------0--0--0--0--0--0--0--0--0-------------------------------------------|

e|---14--12--------------12--------------------------------------------------|
B|-----------12------12------14--12------------------------------------------|
G|---------------13------------------13--11--11--11/-------------------------|
D|---------------------------------------------------------------------------|
A|---------------------------------------------------------------------------|
E|---------------------------------------------------------------------------|
 |
e|-------0--0--0--0--0--0--0--0--0-------0--0--0--0--0-----------------------|
B|-------0--0--0--0--0--0--0--0--0-------0--0--0--0--0-----------------------|
G|-------1--1--1--1--1--1--1--1--1-------2--2--2--2--2-----------------------|
D|-------2--2--2--2--2--2--2--2--2-------2--2--2--2--2-----------------------|
A|-------2--2--2--2--2--2--2--2--2-------0--0--0--0--0-----------------------|
E|-------0--0--0--0--0--0--0--0--0-------------------------------------------|

e|---14--12--------------12--------------------------------------------------|
B|-----------12------12------14--12------------------------------------------|
G|---------------13------------------13--11--11--11/13--13-------------------|
D|---------------------------------------------------------------------------|
A|---------------------------------------------------------------------------|
E|---------------------------------------------------------------------------|
 |
e|-------0--0--0--0--0--0--0--0--0-------0--0--0--0--0--0--0--0--0-----------|
B|-------0--0--0--0--0--0--0--0--0-------0--0--0--0--0--0--0--0--0-----------|
G|-------1--1--1--1--1--1--1--1--1-------2--2--2--2--2--2--2--2--2-----------|
D|-------2--2--2--2--2--2--2--2--2-------2--2--2--2--2--2--2--2--2-----------|
A|-------2--2--2--2--2--2--2--2--2-------0--0--0--0--0--0--0--0--0-----------|
E|-------0--0--0--0--0--0--0--0--0-------------------------------------------|


e|---14--12--------------12--------------------------------------------------|
B|-----------12------12------14--12------------------------------------------|
G|---------------13------------------13--11--11--11\9---9--------------------|
D|---------------------------------------------------------------------------|
A|---------------------------------------------------------------------------|
E|---------------------------------------------------------------------------|
 |
e|-------0--0--0--0--0--0--0--0--0-------0--0--0--0--0--0--0--0--0-----------|
B|-------0--0--0--0--0--0--0--0--0-------0--0--0--0--0--0--0--0--0-----------|
G|-------1--1--1--1--1--1--1--1--1-------2--2--2--2--2--2--2--2--2-----------|
D|-------2--2--2--2--2--2--2--2--2-------2--2--2--2--2--2--2--2--2-----------|
A|-------2--2--2--2--2--2--2--2--2-------0--0--0--0--0--0--0--0--0-----------|
E|-------0--0--0--0--0--0--0--0--0-------------------------------------------|

e|---14--12--------------12--------------------------------------------------|
B|-----------12------12------14--12------------------------------------------|
G|---------------13------------------13--11--11--11/13--13-------------------|
D|---------------------------------------------------------------------------|
A|---------------------------------------------------------------------------|
E|---------------------------------------------------------------------------|
 |
e|-------0--0--0--0--0--0--0--0--0-------0--0--0--0--0--0--0--0--0-----------|
B|-------0--0--0--0--0--0--0--0--0-------0--0--0--0--0--0--0--0--0-----------|
G|-------1--1--1--1--1--1--1--1--1-------2--2--2--2--2--2--2--2--2-----------|
D|-------2--2--2--2--2--2--2--2--2-------2--2--2--2--2--2--2--2--2-----------|
A|-------2--2--2--2--2--2--2--2--2-------0--0--0--0--0--0--0--0--0-----------|
E|-------0--0--0--0--0--0--0--0--0-------------------------------------------|

e|---14--12--------------12--------------------------------------------------|
B|-----------12------12------14--12------------------------------------------|
G|---------------13------------------13--11--11--11/9---9--------------------|
D|---------------------------------------------------------------------------|
A|---------------------------------------------------------------------------|
E|---------------------------------------------------------------------------|
 |
e|-------0--0--0--0--0--0--0--0--0-------0--0--0--0--0--0--0--0--0-----------|
B|-------0--0--0--0--0--0--0--0--0-------0--0--0--0--0--0--0--0--0-----------|
G|-------1--1--1--1--1--1--1--1--1-------2--2--2--2--2--2--2--2--2-----------|
D|-------2--2--2--2--2--2--2--2--2-------2--2--2--2--2--2--2--2--2-----------|
A|-------2--2--2--2--2--2--2--2--2-------0--0--0--0--0--0--0--0--0-----------|
E|-------0--0--0--0--0--0--0--0--0-------------------------------------------|


Then, play this part until outro:

e|---14--12--------------12------------14----------16------------------------|
B|-----------12------12------12----12-----12----12----12---------------------|
G|---------------13-------------13-----------13----------13------------------|
D|---------------------------------------------------------------------------|
A|---------------------------------------------------------------------------|
E|---------------------------------------------------------------------------|
 |
e|-------0--0--0--0--0--0--0--0--0-------0--0--0--0--0--0--0--0--0-----------|
B|-------0--0--0--0--0--0--0--0--0-------0--0--0--0--0--0--0--0--0-----------|
G|-------1--1--1--1--1--1--1--1--1-------2--2--2--2--2--2--2--2--2-----------|
D|-------2--2--2--2--2--2--2--2--2-------2--2--2--2--2--2--2--2--2-----------|
A|-------2--2--2--2--2--2--2--2--2-------0--0--0--0--0--0--0--0--0-----------|
E|-------0--0--0--0--0--0--0--0--0-------------------------------------------|


Outro

e|-------0~------------0~------------0~-------------------------|
B|-------0~------------0~------------0~-------------------------|
G|-------1~------------2~------------1~-------------------------|
D|-------2~------------2~------------2~-------------------------|
A|-------2~------------0~------------2~-------------------------|
E|-------0~--------------------------0~-------------------------|


Please rate and thank you!

************************************

| /   slide up
| \   slide down
| h   hammer-on
| p   pull-off
| ~   vibrato
| +   harmonic
| x   Mute note
| b   Bend
| pb  Pre-bend
| br  Bend release
| pbr Pre-bend release
| brb Bend release bend

************************************
Добавлено: 15.11.2015
Другие материалы по этой песне:
  • Аккорды и текст

Страница создана 15.11.2015
http://primanota.ru/the-trees-and-the-wild/irish-girl-chords.htm
Привет, Гость.
Предлагаем пройти революционный курс по гитаре.
Подарок от PrimaNota.Ru, забирай!