PrimaNota.ru - самый крупный в мире бесплатный архив песенных текстов, аккордов, табулатур и нот


The Thirty Years War - Knife Fight At The Mormon Church - таба, видео

Регистрация Запомнить меня
Войти через:  Facebook Google Twitter Vk Yandex Mail.ru

The Thirty Years War - Knife Fight At The Mormon Church - таба, видео

Печатать
Просмотров: 22
Knife Fight AT the Mormon Church
The Thirty Years War
Martyrs Among the Casualties (2002)


0:00 (Intro)
Right Channel(clean):
e|---------------------------------------------------------------------|
B|-------------12p0------------------------12p0------------------15p0--|
G|--12h14p12p0------7-/-9--12p0-12h14p12p0------7-/-9-12p0--14p0-------|
D|---------------------------------------------------------------------|
A|---------------------------------------------------------------------|
E|---------------------------------------------------------------------|

e|--------------------------------------------|
B|--------------------------15p0--------------|
G|-9-/-11--14p0-14h16p14p0-------9-/-11-14p0--|
D|--------------------------------------------|
A|--------------------------------------------|
E|--------------------------------------------|

Left Channel (clean):
(listen for rhythm on all strum patterns)
e|---------------------|
B|-----------15p0------|
G|----------------14p0-|
D|-12--7--9------------|
A|-10--5--7------------|
E|-12--7--8------------|

0:34 (Pre-verse)
Right Channel (distorted):
same riff, however it ends on:
e|----------|
B|----------|
G|-14-14p12-|
D|----------|
A|----------|
E|----------|

/ = slide
Left Channel (distorted):                                               (tapping
e|-7p0-----------7p0---8p0-|------------------------------------------|-------------------|-------------------|
B|-----8-8-8-8-8-----8-----|-10p8---10p8---10p8---8p5---8p5--8p5---8~-|-------------------|-------------------|
G|-------------------------|------7------7------7-----5-----5----5-5~-|-----16----12---12-|--------14----12---|
D|-------------------------|------------------------------------------|-------------------|-------------------|
A|-------------------------|------------------------------------------|-------------------|-------------------|
E|-------------------------|------------------------------------------|-8-/-/-/-/-12-12---|----8-/-/-/-/-12-12|

0:52 
Right Channel (clean):
e|-----------------------|----------------------|
B|--------15----------15-|-------12----------12-|
G|-14h16-----14-14h16----|-12h14----12-12h14----|
D|-----------------------|----------------------|
A|-----------------------|----------------------|
E|-----------------------|----------------------|

Left Channel (distorted):
(same tapping riff)

1:02 (Verse 1)
Right Channel (clean):
(same riff previously)

Left Channel (clean):
* = harmonic
The strum pattern's pretty weird here, but these should be the correct chords.
e|---------15-|---------------------------------|--------|-5*-|
B|------------|---------10--------------10------|-12---7-|-5*-|
G|------------|-------0----0----------0----0----|-12---7-|-5*-|
D|----12------|----12--------12----12--------12-|-10---5-|-5*-|
A|-10---------|-10--------------10--------------|-12---7-|----|
E|------------|---------------------------------|--------|----|

1:22 (chorus)
[It's pretty difficult to hear it here, so the chords might be slightly wrong]
Right Channel (distorted):
e|---------------------------------|
B|---------------------------------|
G|-12--11--14--16------------------|
D|-x---x---x---x----12---10--8---5-|
A|-10--9---12--14---10---x---x---x-|
E|------------------12---12--10--7-|

Left Channel (distorted):
e|------------------------------------|
B|------------------------------------|
G|------------------------------------|
D|-12-11--5----11--12--17--15--12--11-|
A|-x--x---5----x---x---x---x---x---x--|
E|-10-9---3----10--10--15--13--10--10-|

1:42
Right Channel (clean):
e|-------------------------------------------------------|-------------------------------|---------|
B|-----------------------15-12-------------12-----15--12-|-------------------------------|---12----|
G|----------------14h16--------------12h14---------------|-----[repeat verse melody]-----|---15b---|
D|-------------------------------------------------------|-------------------------------|---------|
A|-------------------------------------------------------|-------------------------------|---------|
E|-------------------------------------------------------|-------------------------------|---------|

Left Channel (clean):
e|---------15-|---------------------------------|--------|
B|------------|---------10--------------10------|-12---7-|
G|------------|-------0----0----------0----0----|-12---7-|
D|----12------|----12--------12----12--------12-|-10---5-|
A|-10---------|-10--------------10--------------|-12---7-|
E|------------|---------------------------------|--------|
          x3

2:11
(repeat chorus)

2:30
Right Channel (clean):
e|------12----12---------7---7---|
B|---10----10----10----8---8---8-|
G|-9-----------------6-----------|
D|-------------------------------|
A|-------------------------------|
E|-------------------------------|

 Left Channel (clean):
e|-----------------------------------------|---------|
B|-------15----15--------------12-------12-|-15---12-|
G|----14----14----14-----13----------13----|-14---11-|
D|-14-----------------11----11----11-------|-14------|
A|-----------------------------------------|---------|
E|-----------------------------------------|---------|

2:55
Right Channel (distorted):
e|-----------------|----------------|----------|-------------|
B|-0---0-----------|-17-17-17p15-15-|-17p15-15-|-17p15-17p15-|
G|-11--12--9---11b-|----------------|----------|-------------| 
D|-12--12--10--12b-|----------------|----------|-------------| [X2]
A|-----------------|----------------|----------|-------------|
E|-----------------|----------------|----------|-------------|
                                         x3
e|------------------------------------------------------------------------------------------------------------|
B|-10-10-10-10-10-10-10h12-10-10-10h12p10-10-12-12-12-12-12-15-15-15-15-15-12-12-12-12-12-10-10-10-10-10-8/10-|
G|------------------------------------------------------------------------------------------------------------|
D|------------------------------------------------------------------------------------------------------------|
A|------------------------------------------------------------------------------------------------------------|
E|------------------------------------------------------------------------------------------------------------|

e|---------|
B|-------0-|
G|-9-9-9---|
D|---------|
A|---------|
E|---------|
                                                                                 
                                                                                 
Left Channel (distorted):
e|-----------------|
B|-----------------|
G|-11--12--9---11b-|
D|-12--12--10--12b-|
A|-----------------|
E|-----------------|

3:14
Right Channel (clean):
e|----------------------------------------------------|
B|-15-15-15-12-12-12-13-13-13-------------------------|
G|----------------------------12-12-12-12h14-12h14-12-|
D|----------------------------------------------------|
A|----------------------------------------------------|
E|----------------------------------------------------|

Left Channel (clean):                                                     
e|----15----14-|----17----15-|---19----15-|---19----17---19---20---22---19---20----15-15h17-15-|
B|-------------|-------------|------------|----------------------------------------------------|
G|-12----12----|-0----0------|-0----0-----|-0----0-----0----0----0----0----0----0--------------|
D|-------------|-------------|------------|----------------------------------------------------|
A|-------------|-------------|------------|----------------------------------------------------|
E|-------------|-------------|------------|----------------------------------------------------|

e|-22-22-22-19-19-19-20-20-20-17-17-17-15h17-15h17-15-|
B|----------------------------------------------------|
G|----------------------------------------------------|
D|----------------------------------------------------|
A|----------------------------------------------------|
E|----------------------------------------------------|
3:37
Right Channel (distorted):
e|-----------------------------------------------------------------------------------------------|------------|
B|-15-15-15-12-12-12-13-13-13--------------15-15-15-12-12-12-13-13-13----------------------------|------------|
G|----------------------------12-12-12-14-----------------------------12-12-12-12h14-12h14-12h14-|-12h14-16-12|
D|-----------------------------------------------------------------------------------------------|------------|
A|-----------------------------------------------------------------------------------------------|------------|
E|-----------------------------------------------------------------------------------------------|------------|

Left Channel (distorted):
e|------------------------|
B|------------------------|
G|-----5---7--------5-----|
D|-2---5---7----2---5---5-|
A|-2---3---5----2---3---5-|
E|-0------------0-------3-|

3:58

Repeat the intro verse.

End on:

e|-----------------|
B|------------12-/-|
G|-12h14p12p0------|
D|-----------------|
A|-----------------|
E|-----------------|
Добавлено: 20.12.2015
Вам также может быть интересно:
Другие материалы по этой песне:
  • Аккорды и текст

Страница создана 20.12.2015
http://primanota.ru/the-thirty-years-war/knife-fight-at-mormon-church-chords.htm
Привет, Гость.
Предлагаем пройти революционный курс по гитаре.
Подарок от PrimaNota.Ru, забирай!