PrimaNota.ru - самый крупный в мире бесплатный архив песенных текстов, аккордов, табулатур и нот


The Tenants - You Shit Me To Tears - аккорды и текст, видео

Регистрация Запомнить меня
Войти через:  Facebook Google Twitter Vk Yandex Mail.ru

The Tenants - You Shit Me To Tears - аккорды и текст, видео

Печатать
Просмотров: 69
You Shit Me To Tears
The Tenants
Here we are guys, any mistakes please comment your correction or email me at:
hoops-97@live.com.au
I've done my best to put everything in order so autoscroll will be useful on this one.

Standard Tuning   

D  A  Bm G
E|-5--5--7--3-|
B|-7--5--7--3-|
G|-7--6--7--4-|
D|-7--7--9--5-|
A|-5--7--9--5-|
E|-5--5--7--3-|


Intro: 
|D-A-Bm-G| x4


Verse 1:

D                A          Bm           G
There's a little man and he sticks in my mind
D                  A           Bm       G
He's a pain in the arse and he seems to find
      D          A            Bm      G
Every bone in my body with an axe to grind
D            A         Bm  
All I got to say about it
               
               
Chorus
               D     A   Bm     
You shit me to tears
G                   D    A   Bm
And I'm makin' this clear
G              D     A   Bm
Just give me a break
G              D     A   Bm
For fuck's sake
G
For fuck's

Interlude Riff:
E|--10--10----7-----7----3--2--3----3-------|
B|----14--------10---------------------5--3-|
G|------------------------------------------|
D|------------------------------------------|
A|------------------------------------------|
E|------------------------------------------|x4


Verse 2:
     D         A          Bm          G
He's got a big car and he drives real fast
        D                      A               Bm           G
But you can't see where you're going with your head up your arse
    D              A                   Bm      G
His voice is kinda muffled 'cause it's full of shit
D            A         Bm  
All I got to say about it


Chorus:
               D     A   Bm     
You shit me to tears
G                   D    A   Bm
And I'm makin' this clear
G              D     A   Bm
Just give me a break
G              D     A   Bm
For fuck's sake
G              D     A   Bm
For fuck's sake
G              D     A   Bm
For fuck's sake
G              D     A   Bm   G 
For fuck's sake


Bridge: 

D          A                  Bm       G
My, Little Dougie, how you've grown so tall
       D                 A     Bm           G
You've grown into a very painful know-it-all
    D                  A            Bm        G
I'd like to shove your head into a barb wire fence
          D                A         Bm
But you'd probably tell me all about it


Chorus:
               D     A   Bm     
You shit me to tears
G                   D    A   Bm
And I'm makin' this clear
G              D     A   Bm
Just give me a break
G              D     A   Bm
For fuck's sake
G              D     A   Bm
For fuck's sake
G              D     A   Bm
For fuck's sake
G              D     A   Bm   G 
For fuck's sake

               D     A   Bm     
You shit me to tears
G                   D    A   Bm
And I'm makin' this clear
G              D     A   Bm
Just give me a break
G              D     A   Bm
For fuck's sake
G              D     A   Bm
For fuck's sake
G              D     A   Bm
For fuck's sake
G              D     A   Bm   G 
For fuck's sake


Chorus Riff:
E|--10--10----7-----7----3--2--3----3-------|
B|----14--------10---------------------5--3-|
G|------------------------------------------|
D|------------------------------------------|
A|------------------------------------------|
E|------------------------------------------|x4

E|--10----10----12----12----12-14-15----14-12------|
B|-----14----------15-------------------------15---|
G|-------------------------------------------------|
D|-------------------------------------------------|
A|-------------------------------------------------|
E|-------------------------------------------------|x2

End Chord:
D
Добавлено: 01.06.2013
Другие материалы по этой песне:
  • Аккорды и текст

Страница создана 01.06.2013
http://primanota.ru/the-tenants/you-shit-me-to-tears-chords.htm
Привет, Гость.
Предлагаем пройти революционный курс по гитаре.
Подарок от PrimaNota.Ru, забирай!