PrimaNota.ru - самый крупный в мире бесплатный архив песенных текстов, аккордов, табулатур и нот


The Temperance Movement - Three Bulleits - бас-таба, видео

Регистрация Запомнить меня
Войти через:  Facebook Google Twitter Vk Yandex Mail.ru

The Temperance Movement - Three Bulleits - бас-таба, видео

Печатать
Просмотров: 71
The Temperance Movement
Three Bulleits
(White Bear - 2016)

Standard tuning

Intro
G---------|---------|---------|--------|--------|--------|--------||
D---------|2-2------|2-2------|2-2-----|--------|2-2-----|--------||
A---------|---------|---------|----2-2-|0-0-----|----2-2-|0-0-----||
E---------|---------|---------|--------|----3-3-|--------|----3-3-||

Verse 1
G---------|--------|--------|--------||
D-2-2-----|--------|2-2-----|--------||
A-----2-2-|0-0-----|----2-2-|0-0-----||
E---------|----3-3-|--------|----3-3-||(x4)

Chorus
G---------|---------|---------|---------|---------|---------|---------|---------||
D---------|---------|---------|---------|---------|---------|---------|---------||
A-0-0-0-0-|-0-0-0---|-0-0-0-0-|-0-0-0---|-0-0-0-0-|-0-0-0---|-0-0-0-0-|000000000||
E---------|------3--|---------|------3--|---------|------3--|---------|---------||

G---------|--------|--------|--------||
D-2-2-----|--------|2-2-----|--------||
A-----2-2-|0-0-----|----2-2-|0-0-----||
E---------|----3-3-|--------|----3-3-||(x2)

Verse 2
G---------|--------|--------|--------||
D-2-2-----|--------|2-2-----|--------||
A-----2-2-|0-0-----|----2-2-|0-0-----||
E---------|----3-3-|--------|----3-3-||(x2)

Chorus
G---------|---------|---------|---------|---------|---------|---------|---------||
D---------|---------|---------|---------|---------|---------|---------|---------||
A-0-0-0-0-|-0-0-0---|-0-0-0-0-|-0-0-0---|-0-0-0-0-|-0-0-0---|-0-0-0-0-|000000000||
E---------|------3--|---------|------3--|---------|------3--|---------|---------||

G---------|--------|--------|--------||
D-2-2-----|--------|2-2-----|--------||
A-----2-2-|0-0-----|----2-2-|0-0-----||
E---------|----3-3-|--------|----3-3-||(x2)

Bridge
G-----------------|----------------|----------------|--------------||
D-2--2-2-2--------|0--0-0-0--------|----------------|0-0--0-0-0-0--||
A---------2--2-2-2|--------0--0-0-0|3--3-3-3--------|--------------||
E-----------------|----------------|--------3--3-3-3|--------------||(x2)

Solo
G---------|--------|--------|--------|--------|--------|--------|-----------|------------||
D-2-2-----|2-2-----|2-2-----|2-2-----|2-2-----|2-2-----|2-2-----|-----------|------------||
A---------|--------|--------|--------|--------|--------|--------|-----------|------------||
E---------|--------|--------|--------|--------|--------|------5/|12-12-12-12|-12-12-12-12||

Chorus
G---------|---------|---------|---------|---------|---------|---------|---------||
D---------|---------|---------|---------|---------|---------|---------|---------||
A-0-0-0-0-|-0-0-0---|-0-0-0-0-|-0-0-0---|-0-0-0-0-|-0-0-0---|-0-0-0-0-|000000000||
E---------|------3--|---------|------3--|---------|------3--|---------|---------||

G---------|--------|--------|--------||
D-2-2-----|--------|2-2-----|--------||
A-----2-2-|0-0-----|----2-2-|0-0-----||
E---------|----3-3-|--------|----3-3-||(x2)

Bridge
G-----------------|----------------|----------------|--------------||
D-2--2-2-2--------|0--0-0-0--------|----------------|0-0--0-0-0-0--||
A---------2--2-2-2|--------0--0-0-0|3--3-3-3--------|--------------||
E-----------------|----------------|--------3--3-3-3|--------------||(x2)

Outro
G---------||
D-2-2-----||
A---------||
E---------||
Добавлено: 04.06.2016
Другие материалы по этой песне:
  • Аккорды и текст

Страница создана 04.06.2016
http://primanota.ru/the-temperance-movement/three-bulleits-chords.htm
Привет, Гость.
Предлагаем пройти революционный курс по гитаре.
Подарок от PrimaNota.Ru, забирай!