PrimaNota.ru - самый крупный в мире бесплатный архив песенных текстов, аккордов, табулатур и нот


The Temperance Movement - Smouldering - таба, бас-таба, видео

Регистрация Запомнить меня
Войти через:  Facebook Google Twitter Vk Yandex Mail.ru

The Temperance Movement - Smouldering - таба, бас-таба, видео

Печатать
Просмотров: 79
CAPO 2

Intro + verse:

  A       E            Fm       Fm  E
|-----------------0--------------------------------------------------|
|-2-2-3-2----------0-------------------------------------------------|
|-2-2-2-2-1-1-1h2---2--2-2-2--4--2--1--------------------------------|
|-2-2-2-2-2-2-2--------4-4-4--6--4--2--------------------------------|
|---------2-2-2--------4-4-4--6--4--2--------------------------------|
|--------------------------------------------------------------------|

Prechorus

  D  Fm  E   D  Fm  A
|--------------------------------------------------------------------|
|-3----------3------2-3----------------------------------------------|
|-2--2---1---2---2--2-2----------------------------------------------|
|----4---2-------4--2-2----------------------------------------------|
|----4---2-------4---------------------------------------------------|
|--------------------------------------------------------------------|

Chorus 

   E  Fm A  E    D  Fm  E
|--------------------------------------------------------------------|
|--------2-------3---------------------------------------------------|
|--1--2--2--1----2--2---1--------------------------------------------|
|--2--4--2--2-------4---2--------------------------------------------|
|--2--4-----2-------4---2--------------------------------------------|
|--------------------------------------------------------------------|



i don't like being told by anyone
brother won't you take my warning
wisdom comes like a whisper in my sleep 
that i can't remember in the morning

what i wouldn't do to get my way
when it's hard to find the truth in anything i say

and i'm smouldering
a whole lot for you to see
you're still looking out for me
our love is older yeah,
still glowing in the breeze
you're still smouldering for me

i don't like it when they take me to one side
and tell me everything i know is wrong
i get used to all these footfalls on my path
sure try to change but it's been so long

and i will dance around you so light on my feet
that either devil let you show it baby
of angels singing songs so sweet

and i'm smouldering
a whole lot for you to see
you're still looking out for me
our love is older yeah,
still glowing in the breeze
you're still smouldering, smouldering for me

whoeooeeeee

and i'm smouldering
a whole lot for you to see
you're still looking out, looking out for me
our love is older yeah,
still glowing in the breeze
(you're still smouldering for me)
Добавлено: 01.01.2016
Вам также может быть интересно:
Другие материалы по этой песне:
  • Аккорды и текст

Страница создана 26.11.2014
http://primanota.ru/the-temperance-movement/smouldering-chords.htm
Привет, Гость.
Предлагаем пройти революционный курс по гитаре.
Подарок от PrimaNota.Ru, забирай!