PrimaNota.ru - самый крупный в мире бесплатный архив песенных текстов, аккордов, табулатур и нот


The Temperance Movement - Serenity - таба, бас-таба, видео

Регистрация Запомнить меня
Войти через:  Facebook Google Twitter Vk Yandex Mail.ru

The Temperance Movement - Serenity - таба, бас-таба, видео

Печатать
Просмотров: 89
Intro + verse

  E       D    A      E       G#m   F#m   A
|-----------------  ----------4--4--2--2-----------------------------|
|-----------------  ----------4--4--2--2--5--------------------------|
|-1--1-2--7--7-6--  --1--1-2--4--4--2--2--6--------------------------|
|-2--2-2--7--7-7--x2--2--2-2--6--6--4--4--7--------------------------|
|-2--2-2----------  --2--2-2--6--6--4--4--7--------------------------|
|-----------------  -------------------------------------------------|

Chorus
                    (how to love again...)
  E      Dsus4 D      A   D
|---------3--3-2--  ------2------------------------------------------|
|---------3--3-3--  --5---3------------------------------------------|
|-1--1-2--2--2-2--x3--6---2------------------------------------------|
|-2--2-2----------  --7----------------------------------------------|
|-2--2-2----------  --7----------------------------------------------|
|-----------------  -------------------------------------------------|

Bridge

  E       D  E    E  E    D A B A E
|--------------------------------------------------------------------|
|--------------------------------------------------------------------|
|-1--1-2--7--1-2--9--1-2--7-6-4-2-1----------------------------------|
|-2--2-2--7--2-2--9--2-2--7-7-4-2-2----------------------------------|
|-2--2-2-----2-2-----2-2----------2----------------------------------|
|--------------------------------------------------------------------|

I heard that lonesome serene song.
I drew into the harbour and I found my home.
As she called me ,butterfly' 'cause she knew that I will not live too long.

Into her eyes I fell so deep.
She covered me when the temperance were rising my sleep.
Rapped and sweet serenity
she let me down in rainbow dream.

Lord, may all my hard times be healing times.
Take out this broken heart,
renew my mind,
tears wash my eyes to see
how to love again.
Yes, it's always been this way.

I've seen the van so lost at sea.
I could hear the outside world,
they could not hear me.
And I am resolute to this
I heard that song that set me free yeah.

Lord, may all my hard times be healing times.
Take out this broken heart,
renew my mind.
Tears wash my eyes to see
how to love again.
This is always been this way.

May all my hard times be healing times.
Take out this broken heart
renew my mind.
Tears wash my eyes to see how to love again.
Yes it's always been this way.

-long instrumental bit with ,oh'-

May all my hard times (3x)
be healing
hard time (6x)
Добавлено: 01.01.2016
Другие материалы по этой песне:
  • Аккорды и текст

Страница создана 25.09.2014
http://primanota.ru/the-temperance-movement/serenity-chords.htm
Привет, Гость.
Предлагаем пройти революционный курс по гитаре.
Подарок от PrimaNota.Ru, забирай!