PrimaNota.ru - самый крупный в мире бесплатный архив песенных текстов, аккордов, табулатур и нот


The Temperance Movement - Only Friend - бас-таба, видео

Регистрация Запомнить меня
Войти через:  Facebook Google Twitter Vk Yandex Mail.ru

The Temperance Movement - Only Friend - бас-таба, видео

Печатать
Просмотров: 140
Уроки эстрадного вокала в Санкт-Петербурге
-------------------------------------------------------------------------------
                     ONLY FRIEND - The Temperance Movement
-------------------------------------------------------------------------------
Tabbed by: Luke Raybould
E-mail: FGJedi@gmail.com

Tuning: EADG


Verse 1

G|-----------------------------------|   x3
D|-----------------------------------|
A|---0--0---3--3-----------3-3-------|
E|-----------------3--3----------3---|

G|----------------------------------------------------------------------|   x1
D|----------------------------------------------------------------------|
A|---0--0---3--3-----------3-3-----2-3-5~-------------------------------|
E|-----------------3--3----------3---------------------------------5~---|

Verse 2

G|-----------------------------------|   x3
D|-----------------------------------|
A|---0--0---3--3-----------3-3-------|
E|-----------------3--3----------3---|

G|--------------------------------------------------------------------------|   x1
D|---------------------------------------------------------------------7~---|
A|---0--0---3--3-----------3-3-----2-3-5~----------------------------5------|
E|-----------------3--3----------3------------------------------------------|

Verse 3

G|-----------------------------------|   x3
D|-----------------------------------|
A|---0--0---3--3-----------3-3-------|
E|-----------------3--3----------3---|

G|--------------------------------------------------------------------------|   x1
D|---------------------------------------------------------------------7~---|
A|---0--0---3--3-----------3-3-----2-3-5~----------------------------5------|
E|-----------------3--3----------3------------------------------------------|

Verse 4

G|---------------------------------------|   x1
D|---------------------------------------|
A|---0-0-0-0-0-0-0-0-0-0-0-0-0-0-2-3-5---|
E|---------------------------------------|

G|------------------------------------------------------------|   x4
D|------------------------------------------------------------|
A|---5--5--5--3-5--5--5--5--3-5--5--5--5--3-5--5--5--5--3-5---|
E|------------------------------------------------------------|

G|-----------------------------------|   x3
D|-----------------------------------|
A|---0--0---3--3-----------3-3-------|
E|-----------------3--3----------3---|

G|---------------------------------------------------------------------------|   x1
D|---------------------------------------------------------------------------|
A|---0--0---3--3-----------3-3------5~----------------------------5~---------|
E|-----------------3--3----------3-------------------------------------------|

G|-----------------------------------|   Repeat till end
D|-----------------------------------|
A|---0--0---3--3-----------3-3-------|
E|-----------------3--3----------3---|



| /  slide up
| \  slide down
| h  hammer-on
| p  pull-off
| ~  vibrato
| +  harmonic
| x  Mute note
===============================================================================
Добавлено: 04.06.2016
Другие материалы по этой песне:

Страница создана 08.01.2014
http://primanota.ru/the-temperance-movement/only-friend-chords.htm
Привет, Гость.
Предлагаем пройти революционный курс по гитаре.
Подарок от PrimaNota.Ru, забирай!