PrimaNota.ru - самый крупный в мире бесплатный архив песенных текстов, аккордов, табулатур и нот


The Temperance Movement - Aint No Telling - таба, видео

Регистрация Запомнить меня
Войти через:  Facebook Google Twitter Vk Yandex Mail.ru

The Temperance Movement - Aint No Telling - таба, видео

Печатать
Просмотров: 95
-------------------------------------------------------------------------------
                             AIN'T NO TELLING - The Temperance Movement
-------------------------------------------------------------------------------
Tabbed by: Joe Dott     
E-mail: josephdott@hotmail.com  

Tuning: Standard

Intro

e|---------------------------------------------------------------------------|
B|---------------------------------------------------------------------------|
G|---0-3p0---------0--0-3p0-----0~~--0-3p0---------0-2b~~~p0-----------------|
D|---------3p0-3p0----------3p0------------3p0-3p0-----------3-------x2------|
A|---------------------------------------------------------------------------|
E|---------------------------------------------------------------------------|


Verse 1 - Chord progression

e|---------------------------------------------------------------------------|
B|---------------------------------------------------------------------------|
G|-----7--9--5---------------------------------------------------------------|
D|--5--7--9--5---------------------------------------------------------------|
A|--5--5--7--3---------------------------------------------------------------|
E|--3------------------------------------------------------------------------|


Chorus

e|---------------------------------------------------------------------------|
B|---------------------------------------------------------------------------|
G|---------------------------------------------------------------------------|
D|---5-----7--8----10--------------------------------------------------------|
A|---5-----7--8----10--------------------------------------------------------|
E|--3-3-3/5--6-6-6/8---------------------------------------------------------|


e|---------------------------------------------------------------------------|
B|---------------------------------------------------------------------------|
G|---12~--10~--9~--8~--------------------------------------------------------|
D|---------------------------------------------------------------------------|
A|---------------------------------------------------------------------------|
E|---------------------------------------------------------------------------|

e|---------------------------------------------------------------------------|
B|---------------------------------------------------------------------------|
G|---0-3p0---------0--0-3p0-----0~~--0-3p0---------0-2b~~~p0-----------------|
D|---------3p0-3p0----------3p0------------3p0-3p0-----------3---------------|
A|---------------------------------------------------------------------------|
E|---------------------------------------------------------------------------|


Verse 2 - chord progression

e|---------------------------------------------------------------------------|
B|---------------------------------------------------------------------------|
G|-----7--9--5---------------------------------------------------------------|
D|--5--7--9--5---------------------------------------------------------------|
A|--5--5--7--3---------------------------------------------------------------|
E|--3------------------------------------------------------------------------|




Chorus

e|---------------------------------------------------------------------------|
B|---------------------------------------------------------------------------|
G|---------------------------------------------------------------------------|
D|---5-----7--8----10--------------------------------------------------------|
A|---5-----7--8----10--------------------------------------------------------|
E|--3-3-3/5--6-6-6/8---------------------------------------------------------|


e|---------------------------------------------------------------------------|
B|---------------------------------------------------------------------------|
G|---12~--10~--9~--8~--------------------------------------------------------|
D|---------------------------------------------------------------------------|
A|---------------------------------------------------------------------------|
E|---------------------------------------------------------------------------|

e|---------------------------------------------------------------------------|
B|---------------------------------------------------------------------------|
G|---0-3p0---------0--0-3p0-----0~~--0-3p0---------0-2b~~~p0-----------------|
D|---------3p0-3p0----------3p0------------3p0-3p0-----------3---------------|
A|---------------------------------------------------------------------------|
E|---------------------------------------------------------------------------|

Solo

Wah pedal!!




Chorus

e|---------------------------------------------------------------------------|
B|---------------------------------------------------------------------------|
G|---------------------------------------------------------------------------|
D|---5-----7--8----10--------------------------------------------------------|
A|---5-----7--8----10--------------------------------------------------------|
E|--3-3-3/5--6-6-6/8---------------------------------------------------------|


e|---------------------------------------------------------------------------|
B|---------------------------------------------------------------------------|
G|---12~--10~--9~--8~--------------------------------------------------------|
D|---------------------------------------------------------------------------|
A|---------------------------------------------------------------------------|
E|---------------------------------------------------------------------------|

e|---------------------------------------------------------------------------|
B|---------------------------------------------------------------------------|
G|---0-3p0---------0--0-3p0-----0~~--0-3p0---------0-2b~~~p0-----------------|
D|---------3p0-3p0----------3p0------------3p0-3p0-----------3---------------|
A|---------------------------------------------------------------------------|
E|---------------------------------------------------------------------------|

Outro

e|---------------------------------------------------------------------------|
B|---------------------------------------------------------------------------|
G|---0-3p0---------0--0-3p0-----0~~--0-3p0---------0-2b~~~p0-----------------|
D|---------3p0-3p0----------3p0------------3p0-3p0-----------3---------------|
A|---------------------------------------------------------------------------|
E|---------------------------------------------------------------------------|



************************************

| /   slide up
| \   slide down
| h   hammer-on
| p   pull-off
| ~   vibrato
| +   harmonic
| x   Mute note
| b   Bend
| pb  Pre-bend
| br  Bend release
| pbr Pre-bend release
| brb Bend release bend

************************************
Добавлено: 30.10.2013
Другие материалы по этой песне:

Страница создана 30.10.2013
http://primanota.ru/the-temperance-movement/aint-no-telling-chords.htm
Привет, Гость.
Предлагаем пройти революционный курс по гитаре.
Подарок от PrimaNota.Ru, забирай!