PrimaNota.ru - самый крупный в мире бесплатный архив песенных текстов, аккордов, табулатур и нот


The Temper Trap - Drum Song - аккорды и текст, таба, видео

Регистрация Запомнить меня
Войти через:  Facebook Google Twitter Vk Yandex Mail.ru

The Temper Trap - Drum Song - аккорды и текст, таба, видео

Печатать
Просмотров: 202
Уроки эстрадного вокала в Санкт-Петербурге
Drum Song
The Temper Trap
The Temper Trap-Drum Song

Standard Tuning

Intro w/ delay
e---------------------------------------------|
b------------12-----8-----10------------------|
G------9--------------------------------------|
D---------------------------------------------|
A---------------------------------------------|
E---------------------------------------------|

Then for this part he just mutes with his left hand and then slides down the neck
e---\xxxxxxxxxxxxxxxxxxxxxx00000--------------|
b---------------------------------------------|
G---------------------------------------------|
D---------------------------------------------|
A---------------------------------------------|
E---------------------------------------------|

After that part it just repeats the intro again and thren this part comes in.
e----77xxx77xx77-7xx77-7xx77-7xx77-7xx66-6----|
b----88xxx88xx88-8xx88-8xx88-8xx88-8xx77-7----|
G----99xxx99xx99-9xx99-9xx99-9xx99-9xx66-6----|
D----99xxx99xx99-9xx99-9xx99-9xx99-9xx88-8----|
A---------------------------------------------|
E---------------------------------------------|
Im not 100% sure about that last chord so if anyone has a better sugggestion let me know.

Then after this part the intro repeats again and then this comes in
e-------------------12----------------------------------12--|
b--8^----------------------12121212101010108888-------------|
G-------------9------------9 9 9 9 9 9 9 9 9999-9~----------|
D-----------------------------------------------------------|
A-----------------------------------------------------------|
E-----------------------------------------------------------|

2:01
e--10101010101010101010999999999997777777777777777777-------|
b-----------------------------------------------------------|
G-----------------------------------------------------------|
D-----------------------------------------------------------|
A-----------------------------------------------------------|
E-----------------------------------------------------------|

e--/1818181818181818181815151515141414141212121212121212----|
b-----------------------------------------------------------|
G-----------------------------------------------------------|
D-----------------------------------------------------------|
A-----------------------------------------------------------|
E-----------------------------------------------------------|

And then the intro repeats again
e---\xxxxxxxxxxxxxxxxxxxxxx00000--------------|
b---------------------------------------------|
G---------------------------------------------|
D---------------------------------------------|
A---------------------------------------------|
E---------------------------------------------|

Outro
e---------------------------------------------|
b-------------------88888888888101010101010---|
G-99999999999999999999999999 9 9 9 9 9 999999-
D---------------------------------------------|
A---------------------------------------------|
E---------------------------------------------|

j.p.
Добавлено: 17.09.2013
Другие материалы по этой песне:
  • Аккорды и текст

Страница создана 28.07.2013
http://primanota.ru/the-temper-trap/drum-song-chords.htm
Привет, Гость.
Предлагаем пройти революционный курс по гитаре.
Подарок от PrimaNota.Ru, забирай!