PrimaNota.ru - самый крупный в мире бесплатный архив песенных текстов, аккордов, табулатур и нот


The Sunshine Company - Rain - бас-таба, видео

Регистрация Запомнить меня
Войти через:  Facebook Google Twitter Vk Yandex Mail.ru

The Sunshine Company - Rain - бас-таба, видео

Печатать
Просмотров: 52
Уроки эстрадного вокала в Санкт-Петербурге
Tabbed by: 6METAL6BASSIST6
E-mail: petergriffinav@gmail.com

Tuning: EADG

0:05

G|----------------------------------------------------------------|
D|----------------------------------------------------------------|
A|--------0---2---3-------2---0-------2---3---4---5-------5-------|
E|3-------------------------------3-------------------------------|

0:08

G|----------------------------------------------------------------|
D|----------------------------------------------------------------|
A|--------5-----------5---0---2---3-----------3---5---------------|
E|3---------------3-----------------------------------------------|

G|----------------------------------------------------------------|
D|----------------------------------------------------------------|
A|------------------------0---2---3-----------3---5---------------|
E|--------------------3-------------------------------------------|

G|--------------------------------|
D|----------------5---------------|
A|------------5-------5---2---3---|
E|3-------------------------------|

0:21

G|----------------------------------------------------------------|
D|--------------------------------------------5-------------------|
A|5-----------5---------------5---3---------------------------3---|
E|----------------5---5---------------------------3---------------|

G|----------------------------------------------------------------|
D|----------------------------------------------------------------|
A|2-------------------------------3-----------------------3---5---|
E|----------------2---2---------------------------3---3-----------|

G|----------------------------------------------------------------|
D|----------------------------------------------------------------|
A|--------0---2---3-------2---0-------2---3---4---5-------5-------|
E|3-------------------------------3-------------------------------|

0:33

G|----------------------------------------------------------------|
D|----------------------------------------------------------------|
A|--------5-----------5---0---2---3-----------3---5---------------|
E|3---------------3-----------------------------------------------|

G|----------------------------------------------------------------|
D|----------------------------------------------------------------|
A|--------------------------------3-----------3---5---------------|
E|3-------3-----------3---3---------------------------------------|

G|--------------------------------|
D|----------------5---------------|
A|------------5-------5---2---3---|
E|3---3---------------------------|

0:44

G|----------------------------------------------------------------|
D|----------------------------------------------------------------|
A|5-----------5-----------5-------3---------------------------3---|
E|----------------5---5---------------------------3---------------|

G|----------------------------------------------------------------|
D|----------------------------------------------------------------|
A|2-------------------------------3---------------------------5---|
E|----------------2---2---------------------------3---3-----------|

G|----------------------------------------------------------------|
D|----------------------------------------------------------------|
A|--------0---2---3-------2---0-------2---3---4---5-------5-------|
E|3-------------------------------3-------------------------------|

0:59

G|----------------------------------------------------------------|
D|----------------------------------------------------------------|
A|5---------------5---5-----------3---------------3---3-----------|
E|--------5---------------5---5-----------3-----------------------|

G|----------------------------------------------------------------|
D|----------------------------------------------------------------|
A|--------0---2---3-------2---0-------2---3---4---5-------5-------|
E|3-------------------------------3-------------------------------|

G|----------------------------------------------------------------|
D|----------------------------------------------------------------|
A|5---------------5-------5-------3---------------3---3-------3---|
E|--------5-------------------------------3-----------------------|

G|----------------------------------------------------------------|
D|----------------------------------------------------------------|
A|--------0---2---3-------2---0-------2---3---4---5-------5-------|
E|3-------------------------------3-------------------------------|

1:16

G|----------------------------------------------------------------|
D|----------------------------------------------------------------|
A|--------5-----------5---0---2---3-----------3---5---------------|
E|3---------------3-----------------------------------------------|

G|----------------------------------------------------------------|
D|----------------------------------------------------------------|
A|------------------------0---2---3-----------3---5---------------|
E|3-------------------3-------------------------------------------|

G|--------------------------------|
D|----------------5---------------|
A|------------5-------5---2---3---|
E|3---3---------------------------|

1:28

G|----------------------------------------------------------------|
D|--------------------------------------------5-------------------|
A|5-----------5-----------5-------3---------------------------3---|
E|----------------5---5-------------------------------------------|

G|----------------------------------------------------------------|
D|----------------------------------------------------------------|
A|2-------------------------------3---------------------------5---|
E|----------------2---2---------------------------3---3-----------|

G|----------------------------------------------------------------|
D|----------------------------------------------------------------|
A|--------0---2---3-------2---0-------2---3---4---5-------5-------|
E|3-------------------------------3-------------------------------|

1:41

G|----------------------------------------------------------------|
D|----------------------------------------------------------------|
A|------------5-------5---0---2---3-----------3---5---------------|
E|3---------------3-----------------------------------------------|

G|----------------------------------------------------------------|
D|----------------------------------------------------------------|
A|------------------------0---2---3-----------3---5---------------|
E|3-------------------3-------------------------------------------|

G|--------------------------------|
D|----------------5---------------|
A|------------5-------5---2---3---|
E|3---3---------------------------|

1:52

G|----------------------------------------------------------------|
D|--------------------------------------------5-------------------|
A|5-------5---------------5-------3---------------------------3---|
E|----------------5-------------------------------3---------------|

G|----------------------------------------------------------------|
D|----------------------------------------------------------------|
A|2-------------------------------3---------------------------5---|
E|----------------2---2---------------------------3---3-----------|

G|----------------------------------------------------------------|
D|----------------------------------------------------------------|
A|--------0---2---3-------2---0-------2---3---4---5-------5-------|
E|3-------------------------------3-------------------------------|

2:06

G|----------------------------------------------------------------|
D|----------------------------------------------------------------|
A|5---------------5---5-----------3---------------3---3-----------|
E|--------5---------------5---------------3-----------------------|

G|----------------------------------------------------------------|
D|----------------------------------------------------------------|
A|--------0---2---3-------2---0-------2---3---4---5-------5-------|
E|3-------------------------------3-------------------------------|

G|----------------------------------------------------------------|
D|----------------------------------------------------------------|
A|5-------------------------------3---------------3---3-----------|
E|--------5-------5-------5---------------3-----------------------|

G|----------------------------------------------------------------|
D|----------------------------------------------------------------| x2
A|--------0---2---3-------2---0-----------0---2---3-------2---0---|
E|3-------------------------------3-------------------------------|

G|--------------------------------|
D|--------------------------------|
A|----2---3---4---5-------5-------|
E|3-------------------------------|

G|----------------------------------------------------------------|
D|----------------------------------------------------------------|
A|--------0---2---3-------2---0---------2-----3-----4-------5-----|
E|3-------------------------------3-------------------------------|
Добавлено: 15.06.2016
Другие материалы по этой песне:
  • Аккорды и текст

Страница создана 15.06.2016
http://primanota.ru/the-sunshine-company/rain-chords.htm
Привет, Гость.
Предлагаем пройти революционный курс по гитаре.
Подарок от PrimaNota.Ru, забирай!