PrimaNota.ru - самый крупный в мире бесплатный архив песенных текстов, аккордов, табулатур и нот


The Sunrays - A Little Dog And His Boy - бас-таба, видео

Регистрация Запомнить меня
Войти через:  Facebook Google Twitter Vk Yandex Mail.ru

The Sunrays - A Little Dog And His Boy - бас-таба, видео

Печатать
Просмотров: 88
Tabbed by: 6METAL6BASSIST6
E-mail: petergriffinav@gmail.com

Tuning: EADG

0:04

G|----------------------------------------------------------------|
D|2---------------2---------------0---------------0---------------| x2
A|----------------------------------------------------------------|
E|----------------------------------------------------------------|

G|----------------------------------------------------------------|
D|----------------------------------------------------------------|
A|3---------------3-----------------------------------------------|
E|--------------------------------3---------------3---------------|

0:15

G|----------------------------------------------------------------|.
D|2---------------2---------------0---------------0---------------|.
A|----------------------------------------------------------------|.
E|----------------------------------------------------------------|.
                                                                   . x2
G|----------------------------------------------------------------|.
D|----------------------------------------------------------------|.
A|3---------------3-----------------------------------------------|.
E|--------------------------------3---------------3---------------|.

0:29

G|----------------------------------------------------------------|
D|--------------------------------3---------------3---------------| x4
A|3---------------3-----------------------------------------------|
E|----------------------------------------------------------------|

G|--------------------------------|
D|5-----------------------3---5---|
A|--------------------------------|
E|--------------------------------|

0:46

G|----------------------------------------------------------------|.
D|2-----------2---2-----------2---0-----------0---0-----------0---|.
A|----------------------------------------------------------------|.
E|----------------------------------------------------------------|.
                                                                   . x2
G|----------------------------------------------------------------|.
D|----------------------------------------------------------------|.
A|3-----------3---3-----------3-----------------------------------|.
E|--------------------------------3-----------3---3---3-------3---|.

1:00

G|----------------------------------------------------------------|
D|--------------------------------3-----------3---3-----------3---| x4
A|3-----------3---3-----------3-----------------------------------|
E|----------------------------------------------------------------|

G|----------------------------------------|
D|5---------------------------------------|
A|----------------------------------------|
E|----------------------------------------|

1:17

G|----------------------------------------------------------------|.
D|2---------------2---------------0---------------0---------------|.
A|----------------------------------------------------------------|.
E|----------------------------------------------------------------|.
                                                                   . x2
G|----------------------------------------------------------------|.
D|----------------------------------------------------------------|.
A|3---------------3-----------------------------------------------|.
E|--------------------------------3---------------3---------------|.

G|----------------------------------------------------------------|
D|2---------------2-----------------------------------------------|
A|--------------------------------0-----------------------0---0---|
E|----------------------------------------------------------------|

1:36

G|----------------------------------------------------------------|
D|----------------------------------------------------------------| x4
A|5---------------5-----------------------------------------------|
E|--------------------------------3---------------3---------------|

G|----------------------------------------------------------------|
D|2---------------2---------------------------------------2-------|
A|--------------------------------0-------------------0-------0---|
E|----------------------------------------------------------------|

1:55

G|----------------------------------------------------------------|.
D|4-----------4---4-----------4---2-----------2---2-----------2---|.
A|----------------------------------------------------------------|.
E|----------------------------------------------------------------|.
                                                                   . x2
G|----------------------------------------------------------------|.
D|----------------------------------------------------------------|.
A|5-----------5---5-----------5---0-----------0---0---0-------0---|.
E|----------------------------------------------------------------|.

2:10

G|----------------------------------------------------------------|
D|----------------------------------------------------------------|
A|5-----------5---5-----------5---5-----------5---5-----------5---|
E|----------------------------------------------------------------|

G|----------------------------------------------------------------|
D|----------------------------------------------------------------|
A|2-----------2---2-----------2---2-----------2---2-----------2---|
E|----------------------------------------------------------------|

G|----------------------------------------------------------------|
D|2-----------2---2-----------2-----------------------------------|
A|--------------------------------0-------------------------------|
E|----------------------------------------------------------------|

G|--------------------------------|
D|--------------------------------|
A|--------------------------------|
E|--------------------------------|

G|----------------------------------------------------------------|
D|4-----------4---4---------------2---------------2---------------|
A|----------------------------------------------------------------|
E|----------------------------------------------------------------|

G|----------------------------------------------------------------|
D|----------------------------------------------------------------|
A|5---------------5---------------0-----------0---0---------------|
E|----------------------------------------------------------------|

G|----------------------------------------------------------------|
D|4---------------4---------------2---------------2---------------|
A|----------------------------------------------------------------|
E|----------------------------------------------------------------|

G|----------------------------------------------------------------|
D|----------------------------------------------------------------| fades out here.
A|5---------------5---------------0-----------0---0---------------|
E|----------------------------------------------------------------|
Добавлено: 27.06.2016
Вам также может быть интересно:
Другие материалы по этой песне:
  • Аккорды и текст

Страница создана 27.06.2016
http://primanota.ru/the-sunrays/little-dog-and-his-boy-chords.htm
Привет, Гость.
Предлагаем пройти революционный курс по гитаре.
Подарок от PrimaNota.Ru, забирай!