PrimaNota.ru - самый крупный в мире бесплатный архив песенных текстов, аккордов, табулатур и нот


The Sunpilots - Spotlight In The Sun - таба, видео

Регистрация Запомнить меня
Войти через:  Facebook Google Twitter Vk Yandex Mail.ru

The Sunpilots - Spotlight In The Sun - таба, видео

Печатать
Просмотров: 98
Уроки эстрадного вокала в Санкт-Петербурге
Авторы: The Sunpilots

-------------------------------------------------------------------------------
                             SPOTLIGHT IN THE SUN - The Sunpilots
-------------------------------------------------------------------------------
Tabbed by: Tyler J
Email: full_metal_orange AT hotmail DOT com

Tuning: Standard

I first heard this through the iTunes free single of the week and it's a fantastic song. 
other tab was missing a lot, so I put my nose to the grindstone and came up with this. Enjoy!

Intro:

e|---------------------0-0-0-0—-0-0-0--|
B|-----1-0------3------3-3-3-3—-0-3-0--|
G|-----2-0------0------2-2-2-2--2-2-2--|
D|---2--------0---0--0-----------------|
A|-0-----------------------------------|
E|----------3--------------------------|

Chorus/Fill:

e|-------0------0-0------3-0------2-0-0-0-0-0--|
B|-----1-0------1-0------0-0------3-0-3-0-3-0--|
G|-----2-0------0-0------0-0----2-2-0-2-2-2-2--|
D|---2-2-0----2-2-0------0-0--0---0------------|
A|-0---0-0--3---3-0----2-2-0-------------------|
E|-------------------3---3---------------------|

Intro: x2

Verse:

What's wrong with me?
Shall I come clean?
‘Cause there's a spotlight in the sun on me... (Chorus/Fill)

This drink means more
To me, but I need more.
As this spotlight shines down (Chorus/Fill)
For me... (You'll see that she's)

Chorus:

She's capturing the crown;
She's trying to bring me down;
Before the second round
begins...

Verse:

I'm standing still
No room to move or fill
As this spotlight shines down
For me...  (Chorus/Fill)

Caught in the sun
But I don't know which way to run
As this spotlight shine down
For me. You'll see that she

Chorus:

She's capturing the crown;
She's trying to bring me down;
Before the second round
begins...

Play Chorus/Fill a few times

Bridge/Outro: Keep playing Chorus/Fill

To my disgrace this light's embrace
Is holding me again in place of who I am
This empty man staring back at me

(Play verse chords until end)
Добавлено: 03.06.2012
Другие материалы по этой песне:
  • Аккорды и текст

Страница создана 03.06.2012
http://primanota.ru/the-sunpilots/spotlight-in-the-sun-chords.htm
Привет, Гость.
Предлагаем пройти революционный курс по гитаре.
Подарок от PrimaNota.Ru, забирай!