PrimaNota.ru - самый крупный в мире бесплатный архив песенных текстов, аккордов, табулатур и нот


The Sundance Kids - Solutions - таба, видео

Регистрация Запомнить меня
Войти через:  Facebook Google Twitter Vk Yandex Mail.ru

The Sundance Kids - Solutions - таба, видео

Печатать
Просмотров: 117
-------------------------------------------------------------------------------
                             Solutions- The Sundance Kids
-------------------------------------------------------------------------------
Tabbed by:
Email:

Tuning:  Standard



Opening/Chorus (0:00, 0:46, 1:35, 2:42) 4/4 time

Guitar 1

e|----------------|-----------------|
B|----------------|-----------------|
G|------------6-6-|6----------------|
D|8-8-8-4-4-4-6-6-|6-6-6-6-6-6-6-6--|
A|8-8-8-4-4-4-4-4-|4-6-6-6-6-6-6-6--|
E|6-6-6-2-2-2-----|--4-4-4-4-4-4-4--|

Guitar 2

e|------------4-4-|4----------------|
B|---—--6-6-6-x-x-|x-6-6-6-4-4-6-6--|
G|1010106-6-6-6-6-|6-6-6-6-6-6-6-6--|
D|8-8-8-4-4-4-----|--4-4-4-4-4-4-4--|
A|----------------|-----------------|
E|----------------|-----------------| x4 opening.  X6 for chorus

I believe this part goes into 7/8 rhythm.

Verse (0:20, 1:08)

Guitar 2 (clean)   7/8 time

e|--------------|---------------|
B|--------------|---------------|
G|----------6---|---------------|
D|----8---6-----|--4-----11---6-|
A|--8---4-------|4--------------|
E|6-----------2-|----2/9----4---| x10

On the tenth time just omit playing the 6 (A flat) note on the fourth string at the end
the riff.


Bridge (1:05, 1:54, 3:00)  4/4 time

Guitar 1

e|--------------|----------------|
B|--------------|----------------|
G|-----6-6------|----6-6--6-6----|
D|8-8--6-6--4-4-|(4)-6-6--6-6-6--|
A|8-8--4-4--4-4-|(4)-4-4--4-4-6--|
E|6-6-------2-2-|(2)----------4--| x1  x2 second time around.
    q    q             q      q

Guitar 2

e|-------9-9------|----9-9--9-9-8--|
B|11-11--9-9--9-9-|(9)-9-9--9-9-9--|
G|10-10-------8-8—|(8)-------------|
D|----------------|----------------|
A|----------------|----------------|
E|----------------|----------------|
      q    q             q      q


To finish the song this part is played four times.


Good part (2:00) ‘Do we know what makes us come alive….' 4/4 time

Guitar 1

e|------------|------------|------------|------------|
B|------------|------------|------------|------------|
G|------------|------------|------------|------------|
D|4-4-4----4-4|-4----4-6---|8-8-8----8-8|-8----8-11--|
A|4-4-4----4-4|-4----4-6---|8-8-8----8-8|-8----8-11--|
E|2-2-2----2-2|-2----2-4---|6-6-6----6-6|-6----6-9---|
      H         H      Q.       H         H      Q.

Guitar 2

E|------------------|--------------|9--9--8-----9--9-|-8-----9-9-8--|
B|11-11-9-----11-11-|9-----11-9----|11-11-11----11-11|-11----9-9-9--|
G|10-10-10----10-10-|10----10-10---|-----------------|--------------|
D|------------------|--------------|-----------------|--------------|
A|------------------|--------------|-----------------|--------------|
E|------------------|--------------|-----------------|--------------|x2
        H            H        Q.          H            H         Q


..then on the third time

Guitar 1

e|------------|------------|------------|---------------|
B|------------|------------|------------|---------------|
G|------------|------------|------------|---------------|
D|4-4-4----4-4|-4----4-6---|8-8-8----8-8|-8----11-11-11-|
A|4-4-4----4-4|-4----4-6---|8-8-8----8-8|-8----11-11-11-|
E|2-2-2----2-2|-2----2-4---|6-6-6----6-6|-6----9--9—9---|x1
      H         H      Q.       H         H    E. E.

Guitar 2

E|------------------|--------------|9--9--8-----9--9-|-8-----9-9-9--|
B|11-11-9-----11-11-|9-----11-9----|11-11-11----11-11|-11----9-9-9--|
G|10-10-10----10-10-|10----10-10---|-----------------|--------------|
D|------------------|--------------|-----------------|--------------|
A|------------------|--------------|-----------------|--------------|
E|------------------|--------------|-----------------|--------------|
        H            H        Q.          H            H     E.E.

…and the fourth time

Guitar 1
e|------------|------------|------------|------------|
B|------------|------------|------------|------------|
G|------------|------------|------------|------------|
D|4-4-4----4-4|-4----4-6---|8-8-8----8-8|-8----8-11--|
A|4-4-4----4-4|-4----4-6---|8-8-8----8-8|-8----8-11--|
E|2-2-2----2-2|-2----2-4---|6-6-6----6-6|-6----6-9---|x2
      H         H      Q.       H         H      Q.

Guitar 2

E|------------------|--------------|9--9--8-----9--9-|-8-----8-9---|
B|11-11-9-----11-11-|9-----11-9----|11-11-11----11-11|-11----9-9---|
G|10-10-10----10-10-|10----10-10---|-----------------|-------------|
D|------------------|--------------|-----------------|-------------|
A|------------------|--------------|-----------------|-------------|
E|------------------|--------------|-----------------|-------------|x2
        H            H        Q.          H            H       Q.

Interlude (2:24)  7/8 time

Here just play the verse riff softly  six times.  After the fourth time
the riff the bass will join in for the last two times.

After that play the chorus again and then the bridge four times (see above).  
Hopefully sounds good.

Every note is an eighth note unless stated otherwise.

|   H  half note
|   Q  quarter note
|   .  dotted note
|  ()tied note
| /  slide up
| \  slide down
| h  hammer-on
| p  pull-off
| ~  vibrato
| +  harmonic
| x  Mute note
===============================================================================
Добавлено: 15.06.2012
Другие материалы по этой песне:
  • Аккорды и текст

Страница создана 15.06.2012
http://primanota.ru/the-sundance-kids/solutions-chords.htm
Привет, Гость.
Предлагаем пройти революционный курс по гитаре.
Подарок от PrimaNota.Ru, забирай!