PrimaNota.ru - самый крупный в мире бесплатный архив песенных текстов, аккордов, табулатур и нот


The Suicide File - Ashcroft - таба, видео

Регистрация Запомнить меня
Войти через:  Facebook Google Twitter Vk Yandex Mail.ru

The Suicide File - Ashcroft - таба, видео

Печатать
Просмотров: 86
-------------------------------------------------------------------------------
                             Ashcroft - The Sucide File
-------------------------------------------------------------------------------
Tabbed by: Austin 

Tuning: Drop C#

Intro

Guitar One:
|------------------------|
|------------------------|
|------------------------|
|--55-33h5---------------|
|--55-33h5---------------|
|--55-33h5---------------|

Guitar Two:
|------------------------|
|------------------------|
|------------------------|
|----------55-33h5-------|
|----------55-33h5-------|
|----------55-33h5-------|

Both Guitars: X2
|---------------------------------------------------------------------------|
|---------------------------------------------------------------------------|
|---------------------------------------------------------------------------|
|----55-33h5------55-33h5------55-33h5------88888888------------------------|
|----55-33h5------55-33h5------55-33h5------88888888------------------------|
|----55-33h5------55-33h5------55-33h5------88888888------------------------|

Both Guitars: X2
|---------------------------------------------------------------------------|
|---------------------------------------------------------------------------|
|---------------------------------------------------------------------------|
|--55-33h5p3h55-33h5p3h55-33hp3\88888888------------------------------------|
|--55-33h5p3h55-33h5p3h55-33hp3\88888888------------------------------------|
|--55-33h5p3h55-33h5p3h55-33hp3\88888888------------------------------------|

Both Guitars:
|---------------------------------------------------------------------X-----|
|---------------------------------------------------------------------X-----|
|-----------------3333333355555555------------------3333333355555555--X-----|
|-55555555333333333333333355555555--55555555333333333333333355555555--X-3---|
|-55555555333333331111111133333333--55555555333333331111111133333333--X-3---|
|-5555555533333333------------------5555555533333333------------------X-3---|

Guitar One:
|---------------------------------------------------------------------------|
|---------------------------------------------------------------------------|
|-----------------3333333355555555------------------------------------------|
|-55555555333333333333333355555555--55555555333333338~~~~~~~~~~~~-8910~~----|
|-55555555333333331111111133333333--55555555333333338~~let-ring~~-8910~~----|
|-5555555533333333------------------55555555333333338~~~~~~~~~~~~-8910~~----|

Guitar Two:
|--8---8----8--8---8----8--8---8----8---------------------------------------|
|----6---6-------6---6-------6---6------7------9----------------------------|
|------7---7-------7---7-------7---7----9-bend-11-bend----------------------|
|---------------------------------------------------8~~~~~~~~~~~~-8910~~----|
|---------------------------------------------------8~~~~~~~~~~~~-8910~~----|
|---------------------------------------------------8~~~~~~~~~~~~-8910~~----|


Both Guitars: X2
|---------------------------------------------------------------------------|
|---------------------------------------------------------------------------|
|---------------------------------------------------------------------------|
|----55-3h5--------55-3h5--------55-3h5--------888910101010-----------------|
|----55-3h5--------55-3h5--------55-3h5--------888910101010-----------------|
|----55-3h5--------55-3h5--------55-3h5--------888910101010-----------------|

Both Guitars: X2
|---------------------------------------------------------------------------|
|---------------------------------------------------------------------------|
|----55-3h5XXXX----55-3h5XXXX----55-3h5XXXX----888910101010-----------------|
|----55-3h5XXXX----55-3h5XXXX----55-3h5XXXX----888910101010-----------------|
|----55-3h5XXXX----55-3h5XXXX----55-3h5XXXX----888910101010-----------------|

|---------------|
|---------------|
|---------------|
|----55-3h5-----|
|----55-3h5-----|
|----55-3h5-----|

| \  slide up
| h  hammer-on
| p  pull-off
| ~  ring out
| x  Mute note
===============================================================================
Добавлено: 19.07.2012
Другие материалы по этой песне:

Страница создана 03.07.2012
http://primanota.ru/the-suicide-file/ashcroft-chords.htm
Привет, Гость.
Предлагаем пройти революционный курс по гитаре.
Подарок от PrimaNota.Ru, забирай!