PrimaNota.ru - самый крупный в мире бесплатный архив песенных текстов, аккордов, табулатур и нот


The Subways - Twisted Game - таба, видео

Регистрация Запомнить меня
Войти через:  Facebook Google Twitter Vk Yandex Mail.ru

The Subways - Twisted Game - таба, видео

Печатать
Просмотров: 90
-------------------------------------------------------------------------------
                             SONG NAME - Band Name
-------------------------------------------------------------------------------
Tabbed by:
E-mail:

Tuning:

Intro:
e|---------------------------------------------------------------------------|
B|---------------------------------------------------------------------------|
G|---------------------------------------------------------------------------|   
D|----------------2--2--4----------------------------------------------------|
A|----------2--4--------------------2--4--4--3--2----------------------------|
E|-2--5--5-----------------2--5--5-------------------------------------------|

e|---------------------------------------------------------------------------|
B|---------------------------------------------------------------------------|
G|---------------------------4--2--------------------------------------------|   
D|----------------2--2--4----4--2--------------------------------------------|
A|----------2--4-------------2--0--------------------------------------------|
E|-2--5--5-------------------------------------------------------------------|


Verse:
e|---------------------------------------------------------------------------|
B|---------------------------------------------------------------------------|
G|---------------------------------------------------------------------------|
D|--4--------4-4-4-----------4------4-4-4/7----------------------------------|
A|--4--------4-4-4-----------4------4-4-4/7----------------------------------|
E|--2--------2-2-2-----------2------2-2-2/5----------------------------------|

Chorus:
e|---------------------------------------------------------------------------|
B|---------------------------------------------------------------------------|
G|---------------------------------------------------------------------------|
D|--12-12-12-12-12-12-12-12-7-7-7-7-9-9-9-9-4-4-4-4-4-4-4-4-2-2-2-2-2-2-2-2--|
A|--12-12-12-12-12-12-12-12-7-7-7-7-9-9-9-9-4-4-4-4-4-4-4-4-2-2-2-2-2-2-2-2--|
E|--10-10-10-10-10-10-10-10-5-5-5-5-7-7-7-7-2-2-2-2-2-2-2-2-0-0-0-0-0-0-0-0--|

e|---------------------------------------------------------------------------|
B|---------------------------------------------------------------------------|
G|---------------------------------------------------------------------------|
D|--12-12-12-12-12-12-12-12-7-7-7-7-9-9-9-9----------------------------------|
A|--12-12-12-12-12-12-12-12-7-7-7-7-9-9-9-9----------------------------------|
E|--10-10-10-10-10-10-10-10-5-5-5-5-7-7-7-7----------------------------------|
                           {PM-----------PM}
Verse 2:
e|-x--------------------------------------------------------------------------|
B|-x--------------------------------------------------------------------------|
G|-x--------------------------------------------------------------------------|
D|-x--------------------------------------------------------------------------|
A|-x--------------------------------------------------------------------------|
E|-x--------------------------------------------------------------------------|
   You're just muting with your left hand and banging on the strings with high distortion with your pick
e|---------------------------------------------------------------------------|
B|---------------------------------------------------------------------------|
G|---------------------------------------------------------------------------|
D|--4--------4-4-4-----------4------4-4-4/7----------------------------------|
A|--4--------4-4-4-----------4------4-4-4/7----------------------------------|
E|--2--------2-2-2-----------2------2-2-2/5----------------------------------|

Bridge
e|---------------------------------------------------------------------------|
B|---------------------------------------------------------------------------|
G|-----------------------------------------------2---------------------------|
D|-----------------------------------------------2---------------------------|
A|-----2-3-4-4-4-4-4-4-3-2------------2-3-4-4-4--0---------------------------|
E|-2-5---------------------5-5-5--2-5----------------------------------------|
                                                 mute with left an bang strings again
e|---------------------------------------------------------------------------|
B|---------------------------------------------------------------------------|
G|--------------------------------------------9-------9----------------------|
D|--------------------------------------------9-------9----------------------|
A|-----2-3-4-4-4-4-4-4-3-2----------2-3-4-4-4-7-------7----------------------|
E|-2-5---------------------5-5-5-2-5-----------------------------------------|
                                              Let Ring 
Intro
Verse
Chorus
Intro
Verse 2 
Chorus 
Bridge 
Chorus
Intro
************************************

| /   slide up
| \   slide down
| h   hammer-on
| p   pull-off
| ~   vibrato
| +   harmonic
| x   Mute note
| b   Bend
| pb  Pre-bend
| br  Bend release
| pbr Pre-bend release
| brb Bend release bend

************************************
Добавлено: 26.12.2015
Другие материалы по этой песне:
  • Аккорды и текст

Страница создана 26.12.2015
http://primanota.ru/the-subways/twisted-game-chords.htm
Привет, Гость.
Предлагаем пройти революционный курс по гитаре.
Подарок от PrimaNota.Ru, забирай!