PrimaNota.ru - самый крупный в мире бесплатный архив песенных текстов, аккордов, табулатур и нот


The Subways - City Pavement - текст песни, таба, видео

Регистрация Запомнить меня
Войти через:  Facebook Google Twitter Vk Yandex Mail.ru

The Subways - City Pavement - текст песни, таба, видео

Печатать
Просмотров: 140
Авторы музыки: The Subways
Авторы текста: Billy Lunn
Artist: The Subways
Song: City Pavement
Album: Young For Eternity
Tuning: Flats - Eb Ab Db Gb Bb Eb
Tabbed By James Morris

Intro                         
Eb|-0--0-0-0--0-0-0--0-0-2-2-2-|     
Bb|-0--0-0-0--0-0-0--0-0-3-3-3-|     
Gb|-1--1-0-1--1-0-1--1-0-2-2-2-|     
Db|-2--2-0-2--2-0-2--2-0-0-0-0-|     
Ab|-2--2-0-2--2-0-2--2-0-x-x-x-|     
Eb|-0--0---0--0---0--0---------|     
                                     
Eb|-0--0-0-0--0-0-0--0-0-3-3-3-|     
Bb|-0--0-0-0--0-0-0--0-0-3-3-3-|     
Gb|-1--1-0-1--1-0-1--1-0-0-0-0-|     
Db|-2--2-0-2--2-0-2--2-0-0-0-0-|     
Ab|-2--2-0-2--2-0-2--2-0-x-x-x-|     
Eb|-0--0---0--0---0--0---3-3-3-|     
                                     
Verse                                
Eb|-0--0-0-0--0-0-0--0-0-2-2-2-|     
Bb|-0--0-0-0--0-0-0--0-0-3-3-3-|     
Gb|-1--1-0-1--1-0-1--1-0-2-2-2-|     
Db|-2--2-0-2--2-0-2--2-0-0-0-0-|     
Ab|-2--2-0-2--2-0-2--2-0-x-x-x-|
Eb|-0--0---0--0---0--0---------|

Eb|-0--0-0-0--0-0-0--0-0-3-3-3-|
Bb|-0--0-0-0--0-0-0--0-0-3-3-3-|
Gb|-1--1-0-1--1-0-1--1-0-0-0-0-|
Db|-2--2-0-2--2-0-2--2-0-0-0-0-|
Ab|-2--2-0-2--2-0-2--2-0-x-x-x-|
Eb|-0--0---0--0---0--0---3-3-3-|

Chorus
Guitar 1
Eb|---------------------------------|
Bb|---------------------------------|
Gb|-8-8-8-8-8-8-8-8-6-6-6-6-6-6-6-6-|
Db|-9-9-9-9-9-9-9-9-7-7-7-7-7-7-7-7-| x3
Ab|-9-9-9-9-9-9-9-9-7-7-7-7-7-7-7-7-|
Eb|-7-7-7-7-7-7-7-7-5-5-5-5-5-5-5-5-|

Guitar 2
Eb|-------7-------7-------5-------5-|
Bb|-------7-------7-------5-------5-|
Gb|-------8-------8-------6-------6-| x3
Db|-------9-------9-------7-------7-|
Ab|---------------------------------|
Eb|---------------------------------|

Eb|-----------------------------------------|
Bb|-----------------------------------------|
Gb|-8-8-8-8-8-8-8-8/12-12-12-12-12-12-12-12-|
Db|-9-9-9-9-9-9-9-9/12-12-12-12-12-12-12-12-|
Ab|-9-9-9-9-9-9-9-9/10-10-10-10-10-10-10-10-|
Eb|-7-7-7-7-7-7-7-7-------------------------|

Guitar 2
Eb|-------7-------7-----------------|
Bb|-------7-------7-----------------|
Gb|-------8-------8-----------------|
Db|-------9-------9-----------------|
Ab|---------------------------------|
Eb|---------------------------------|

Bridge                        
Eb|-0--0-0-0--0-0-0--0-0-2-2-2-|     
Bb|-0--0-0-0--0-0-0--0-0-3-3-3-|     
Gb|-1--1-0-1--1-0-1--1-0-2-2-2-|     
Db|-2--2-0-2--2-0-2--2-0-0-0-0-|     
Ab|-2--2-0-2--2-0-2--2-0-x-x-x-|     
Eb|-0--0---0--0---0--0---------|     
                                     
Eb|-0--0-0-0--0-0-0--0-0-3-3-3-|     
Bb|-0--0-0-0--0-0-0--0-0-3-3-3-|     
Gb|-1--1-0-1--1-0-1--1-0-0-0-0-|     
Db|-2--2-0-2--2-0-2--2-0-0-0-0-|     
Ab|-2--2-0-2--2-0-2--2-0-x-x-x-|     
Eb|-0--0---0--0---0--0---3-3-3-|     
                                     
Verse                                
Eb|-0--0-0-0--0-0-0--0-0-2-2-2-|     
Bb|-0--0-0-0--0-0-0--0-0-3-3-3-|     
Gb|-1--1-0-1--1-0-1--1-0-2-2-2-|     
Db|-2--2-0-2--2-0-2--2-0-0-0-0-|     
Ab|-2--2-0-2--2-0-2--2-0-x-x-x-|
Eb|-0--0---0--0---0--0---------|

Eb|-0--0-0-0--0-0-0--0-0-3-3-3-|
Bb|-0--0-0-0--0-0-0--0-0-3-3-3-|
Gb|-1--1-0-1--1-0-1--1-0-0-0-0-|
Db|-2--2-0-2--2-0-2--2-0-0-0-0-|
Ab|-2--2-0-2--2-0-2--2-0-x-x-x-|
Eb|-0--0---0--0---0--0---3-3-3-|

Chorus
Guitar 1
Eb|---------------------------------|
Bb|---------------------------------|
Gb|-8-8-8-8-8-8-8-8-6-6-6-6-6-6-6-6-|
Db|-9-9-9-9-9-9-9-9-7-7-7-7-7-7-7-7-| x3
Ab|-9-9-9-9-9-9-9-9-7-7-7-7-7-7-7-7-|
Eb|-7-7-7-7-7-7-7-7-5-5-5-5-5-5-5-5-|

Guitar 2
Eb|-------7-------7-------5-------5-|
Bb|-------7-------7-------5-------5-|
Gb|-------8-------8-------6-------6-| x3
Db|-------9-------9-------7-------7-|
Ab|---------------------------------|
Eb|---------------------------------|

Guitar 1
Eb|-----------------------------------------|
Bb|-----------------------------------------|
Gb|-8-8-8-8-8-8-8-8/12-12-12-12-12-12-12-12-|
Db|-9-9-9-9-9-9-9-9/12-12-12-12-12-12-12-12-|
Ab|-9-9-9-9-9-9-9-9/10-10-10-10-10-10-10-10-|
Eb|-7-7-7-7-7-7-7-7-------------------------|

Guitar 2
Eb|-------7-------7-----------------|
Bb|-------7-------7-----------------|
Gb|-------8-------8-----------------|
Db|-------9-------9-----------------|
Ab|---------------------------------|
Eb|---------------------------------|

Bridge
Eb|----------------------|
Bb|----------------------|
Gb|----------------7-7-7-|
Db|-7/10-7/10-7/10-7-7-7-|
Ab|-7/10-7/10-7/10-5-5-5-|
Eb|-5/-8-5/-8-5/-8-------|

Eb|----------------------|
Bb|----------------------|
Gb|----------------------|
Db|-7/10-7/10-7/10-5-5-5-|
Ab|-7/10-7/10-7/10-5-5-5-|
Eb|-5/-8-5/-8-5/-8-3-3-3-|

Eb|----------------------|
Bb|----------------------|
Gb|----------------7-7-7-|
Db|-7/10-7/10-7/10-7-7-7-|
Ab|-7/10-7/10-7/10-5-5-5-|
Eb|-5/-8-5/-8-5/-8-------|

Eb|----------------------|
Bb|----------------------|
Gb|----------------------|
Db|-7/10-7/10-7/10-5-5-5-|
Ab|-7/10-7/10-7/10-5-5-5-|
Eb|-5/-8-5/-8-5/-8-3-3-3-|

Eb|-----------------------------------------------------------------|
Bb|-----------------------------------------------------------------|
Gb|-7-7-7-7-7-7-7-7-7-7-7-7-7-7-7-7-7-7-7-7-7-7-7-7-7-7-7-7-8-8-8-8-|
Db|-7-7-7-7-7-7-7-7-7-7-7-7-7-7-7-7-7-7-7-7-7-7-7-7-7-7-7-7-8-8-8-8-|
Ab|-5-5-5-5-5-5-5-5-5-5-5-5-5-5-5-5-5-5-5-5-5-5-5-5-5-5-5-5-6-6-6-6-|
Eb|-----------------------------------------------------------------|

Build Up
Eb|-0--0-0-0--0-0-0--0-0-2-2-2-|     
Bb|-0--0-0-0--0-0-0--0-0-3-3-3-|     
Gb|-1--1-0-1--1-0-1--1-0-2-2-2-|     
Db|-2--2-0-2--2-0-2--2-0-0-0-0-|     
Ab|-2--2-0-2--2-0-2--2-0-x-x-x-|     
Eb|-0--0---0--0---0--0---------|     
                                     
Eb|-0--0-0-0--0-0-0--0-0-3-3-3-|     
Bb|-0--0-0-0--0-0-0--0-0-3-3-3-|     
Gb|-1--1-0-1--1-0-1--1-0-0-0-0-|     
Db|-2--2-0-2--2-0-2--2-0-0-0-0-|     
Ab|-2--2-0-2--2-0-2--2-0-x-x-x-|     
Eb|-0--0---0--0---0--0---3-3-3-|   

Guitar 2 (Gradual slide up)

Chorus  
Eb|---------------------------------|
Bb|---------------------------------|
Gb|-8-8-8-8-8-8-8-8-6-6-6-6-6-6-6-6-|
Db|-9-9-9-9-9-9-9-9-7-7-7-7-7-7-7-7-| x3
Ab|-9-9-9-9-9-9-9-9-7-7-7-7-7-7-7-7-|
Eb|-7-7-7-7-7-7-7-7-5-5-5-5-5-5-5-5-|

Guitar 2
Eb|-------7-------7-------5-------5-|
Bb|-------7-------7-------5-------5-|
Gb|-------8-------8-------6-------6-| x3
Db|-------9-------9-------7-------7-|
Ab|---------------------------------|
Eb|---------------------------------|

Guitar 1
Eb|-----------------------------------------|
Bb|-----------------------------------------|
Gb|-8-8-8-8-8-8-8-8/12-12-12-12-12-12-12-12-|
Db|-9-9-9-9-9-9-9-9/12-12-12-12-12-12-12-12-|
Ab|-9-9-9-9-9-9-9-9/10-10-10-10-10-10-10-10-|
Eb|-7-7-7-7-7-7-7-7-------------------------|

Guitar 2
Eb|-------7-------7-----------------|
Bb|-------7-------7-----------------|
Gb|-------8-------8-----------------|
Db|-------9-------9-----------------|
Ab|---------------------------------|
Eb|---------------------------------|

Outro
Eb|-0--0-0-0--0-0-0--0-0-2-2-2-|     
Bb|-0--0-0-0--0-0-0--0-0-3-3-3-|     
Gb|-1--1-0-1--1-0-1--1-0-2-2-2-|     
Db|-2--2-0-2--2-0-2--2-0-0-0-0-|     
Ab|-2--2-0-2--2-0-2--2-0-x-x-x-|     
Eb|-0--0---0--0---0--0---------|     
                                     
Eb|-0--0-0-0--0-0-0--0-0-3-3-3-|     
Bb|-0--0-0-0--0-0-0--0-0-3-3-3-|     
Gb|-1--1-0-1--1-0-1--1-0-0-0-0-|     
Db|-2--2-0-2--2-0-2--2-0-0-0-0-|     
Ab|-2--2-0-2--2-0-2--2-0-x-x-x-|     
Eb|-0--0---0--0---0--0---3-3-3-|

End On
Eb|-0~~~~0----------------|
Bb|-0~~~~0----------------|
Gb|-1~~~~1------1-1-1-1-0-|
Db|-2~~~~2------2-2-2-2-2-|
Ab|-2~~~~-------2-2-2-2-2-|
Eb|-0~~~~-----------------|

End. Please rate and comment. Thanks
Добавлено: 11.11.2013
Другие материалы по этой песне:
  • Аккорды и текст

Страница создана 06.07.2012
http://primanota.ru/the-subways/city-pavement-chords.htm
Привет, Гость.
Предлагаем пройти революционный курс по гитаре.
Подарок от PrimaNota.Ru, забирай!