PrimaNota.ru - самый крупный в мире бесплатный архив песенных текстов, аккордов, табулатур и нот


The Subtle Way - Collisions With Frictions - бас-таба, видео

Регистрация Запомнить меня
Войти через:  Facebook Google Twitter Vk Yandex Mail.ru

The Subtle Way - Collisions With Frictions - бас-таба, видео

Печатать
Просмотров: 93
Collisions With Frictions
The Subtle Way
Against Our Own Retreat
Tab by: Toño

0:06 – 0:30
F|---------------------------------|
C|---------------------------------| x4
G|---------------------------------|
C|-55555555-5-5-55-99999999-9-9-99-|

0:30 – 0:33
F|----------|
C|----------|
G|----------|
C|-5~--9~---|

0:34 – 0:53
F|------------|
C|------------| x2
G|------------|
C|-5x16--9x16-|

0:53 – 1:09
F|-----------------|
C|-----------------| x2
G|-----------------|
C|-5~--5~--77-9x16-|

1:10 - 1:12
F|----------------|
C|----------------|
G|----------------|
C|-99-99-99-99-9\-|

1:13 – 1:32
F|--------------------------------------------|
C|--------------------------------------------| x2
G|--------------------------------------------|
C|-55-55--55--55—55--55--99-99--99--99—99--99-|

1:33-1:35
F|--------|
C|--------|
G|--------|
C|-5~--77-|

1:35 - 1:54
F|-------------|
C|-------------| x2
G|-------------|
C|-9x16—-5x16--|

1:55 – 2:11
F|----------------------------------------|
C|----------------------------------------| x2
G|----------------------------------------|
C|-99--9-9\--99--9-9-9-9-5~--55-5-5-5-5~--|

2:12 – 2:24
F|---------------------------------|
C|---------------------------------| x2
G|---------------------------------|
C|-55555555-5-5-55-99999999-9-9-99-|

2:25 – 2:46
F|---------------------|
C|---------------------| x2
G|---------------------|
C|-5~---5~---9~---9~---|

2:47 – 3:11
F|-------------------------------------------------|
C|-------------------------------------------------| x2
G|-------------------------------------------------|
C|-555-5555-55-777-7777-77-999-9999-99-999-9999-99-|

3:11 – 3:16
F|------------|
C|------------| 
G|------------|
C|-5~--5~--77-|

3:17 – 3:36
F|-------------|
C|-------------| x2
G|-------------|
C|-9x16—-5x16--|

3:37 – 3:53
F|----------------------------------------|
C|----------------------------------------| x2
G|----------------------------------------|
C|-99--9-9\--99--9-9-9-9-5~--55-5-5-5-5~--|

3:54 - 4:19
F|----------------------|
C|----------------------| x2
G|----------------------|
C|-5~---7~---9~---9~----|

4:20 – 4:44
NO Bass or:
F|----------------|
C|-5x16-7x16-9x32-| x2
G|----------------|
C|----------------|

4:45 – 5:09
F|----------------|
C|----------------| x2
G|----------------|
C|-5x16-7x16-9x32-| 

5:10 – 5:15
F|------------|
C|------------| 
G|------------|
C|-5~--5~--77-|

5:16 – 5:54
F|-------------|
C|-------------| x4
G|-------------|
C|-9x16—-5x16--|

5:55 – 5:57
F|----------|
C|----------| 
G|----------|
C|-99--9-9\-|

if anyone has the lyric, they could share?
my english sucks u.u
Добавлено: 05.04.2012
Другие материалы по этой песне:
  • Аккорды и текст

Страница создана 05.04.2012
http://primanota.ru/the-subtle-way/collisions-with-frictions-chords.htm
Привет, Гость.
Предлагаем пройти революционный курс по гитаре.
Подарок от PrimaNota.Ru, забирай!