PrimaNota.ru - самый крупный в мире бесплатный архив песенных текстов, аккордов, табулатур и нот


The Stupid Stupid Henchmen - Rude Girl - таба, видео

Регистрация Запомнить меня
Войти через:  Facebook Google Twitter Vk Yandex Mail.ru

The Stupid Stupid Henchmen - Rude Girl - таба, видео

Печатать
Просмотров: 91
this song is nasty so i'm gonna tab it out, mad easy and fun to play on acoustic guitar 
solo or with a friend. ill band, show them love

       intro:

e-----------------------------------|
B-----------------------------------|
G-----------------------------------|
D----------6---------------9--------|
A----7---4---------9----7-----------|
E--5---5---------7---7--------------| x 2

       then switch to upstroke crack rock steady rhythm:

e-x-5-x-5-x-5-x-5-x-4-x-4-x-5-x-5---|
B-x-5-x-5-x-7-x-7-x-5-x-5-x-7-x-7---|
G-x-6-x-6-x-7-x-7-x-6-x-6-x-7-x-7---|
D-x-7-x-7-x-7-x-7-x-6-x-6-x-7-x-7---|
A-x-7-x-7-x-5-x-5-x-4-x-4-x-5-x-5---|
E-----------------------------------| x 2

       then the verse:

e-x-5-x-5-x-5-x-5-x-4-x-4-x-4-x-4---|
B-x-5-x-5-x-7-x-7-x-5-x-5-x-5-x-5---|
G-x-6-x-6-x-7-x-7-x-6-x-6-x-6-x-6---|
D-x-7-x-7-x-7-x-7-x-6-x-6-x-6-x-6---|
A-x-7-x-7-x-5-x-5-x-4-x-4-x-4-x-4---|
E-----------------------------------|

       every like bar or so when he starts a line he does this:

"i can't get these"...

e---------x-5-x-5-x-4-x-4-x-4-x-4---|
B---------x-7-x-7-x-5-x-5-x-5-x-5---|
G-6-6-6-6-x-7-x-7-x-6-x-6-x-6-x-6---|
D-7-7-7-7-x-7-x-7-x-6-x-6-x-6-x-6---|
A-7-7-7-7-x-5-x-5-x-4-x-4-x-4-x-4---|
E-5-5-5-5---------------------------|

       chorus:
1 guitar does intro riff
e---------------------------------|
B---------------------------------|
G---------------------------------|
D----------6---------------9------|
A----7---4---------9----7---------|
E--5---5---------7---7------------|

the other strums with distortion
e-5~-5~-4~-5~--|
B-5~-7~-5~-7~--|
G-6~-7~-6~-7~--|
D-7~-7~-6~-7~--|
A-7~-5~-4~-5~--|
E-5~-----------|

outro:

e---------------------------------|
B---------------------------------|
G---------------------------------|
D-------------6-----11-------11---|
A-----7---4-4---9-9----9-9-9----9-|
E-5-5---5-------------------------|

what I think are the lyrics:

I took the medicine from my pops
Cuz I need to ease to put my mind at rest
Cuz there is so much I want that I will never have
I cant get these thoughts of this beautiful rude girl out my head
otherwise it only helps if I got a fan and a bowl of ice
to fall asleep at night

I guess I'm kinda demonic in a charming way
I hate when there's a crowd of people in a line
When I need to buy 15 ounces of Libby's
To make pumpkin pie
Ha, I can make a fine crust with a devilish touch
And lure you in to the evils of love
Cuz this sugary mix just isn't enough

And if I'm not the same I can change my ways
You don't know at all what your eyes do to me
I can hear your voice through the words that you write
I just need this rude girl so I can dance tonight

Ive got a maniacal thought of killing the pilot whose flyin my brain
I've tripped on the wire thats makin me insane
I need a better connection so that we can
Get to know, eachother cuz that's the root of the problem for me
Cuz I have no idea who you are. But Id like to find out a little more
Ive been recollecting my thoughts so I can tell you
Whats been on my mind, and how fine you look
Id like to know if you would take my hand and dance
Ive been to too many places where this style is banned
So lets Dance dance dance
Til the morning comes and when I lay my head I need my medicine
Cuz its back to the same routine again of tryin to get thoughts of you out my head

And if I'm not the same I can change my ways
You don't know at all what your eyes do to me
I can hear your voice through the words that you write
I just need this rude girl so I can dance tonight
Добавлено: 16.06.2013
Другие материалы по этой песне:
  • Аккорды и текст

Страница создана 16.06.2013
http://primanota.ru/the-stupid-stupid-henchmen/rude-girl-chords.htm
Привет, Гость.
Предлагаем пройти революционный курс по гитаре.
Подарок от PrimaNota.Ru, забирай!