PrimaNota.ru - самый крупный в мире бесплатный архив песенных текстов, аккордов, табулатур и нот


The Strypes - What A Shame - таба, бас-таба, видео

Регистрация Запомнить меня
Войти через:  Facebook Google Twitter Vk Yandex Mail.ru

The Strypes - What A Shame - таба, бас-таба, видео

Печатать
Просмотров: 220
Уроки эстрадного вокала в Санкт-Петербурге
Авторы: The Strypes, Josh McClorey

---------------------------
WHAT A SHAME - THE STRYPES
---------------------------
Tabbed by: George Neath
E-mail: rockgodgn@hotmail.com

Tuning: Standard

Verse Guitar  1
e|-------------------------|
B|-------------------------|
G|-------------------------|
D|-------------------------|
A|----3-6-----6-9----------|
E|-4-4-----7-7-------------| Repeat Throughout Verse

Verse Guitar 2
e|-4-4--7-7--4-4--7-7------|
B|-4-4--7-7--4-4--7-7------|
G|-------------------------|
D|-------------------------|
A|-------------------------|
E|-------------------------| Repeat Throughout Verse

Chorus
e|------------------------------------4-4-|
B|------------------------------------4-4-|
G|-6-6-6-6-6-6-6-6-6-6-6-6-6-6-6-6----5-5-|
D|-6-6-6-6-6-6-6-6-6-6-6-6-6-6-6-6--6-6-6-|
A|-4-4-4-4-4-4-4-4-4-4-4-4-4-4-4-4--6-6-6-|
E|----------------------------------4-4-4-|

e|------------------------------------------------------------------|
B|------------------------------------------------------------------|
G|-6-6-6-6-6-6-6-6-6-6-6-6-6-6-6-6--8-8-8-8-8-8-8-8-8-8-8-8-8-8-8-8-|
D|-6-6-6-6-6-6-6-6-6-6-6-6-6-6-6-6--8-8-8-8-8-8-8-8-8-8-8-8-8-8-8-8-|
A|-4-4-4-4-4-4-4-4-4-4-4-4-4-4-4-4--6-6-6-6-6-6-6-6-6-6-6-6-6-6-6-6-|
E|------------------------------------------------------------------|

Verse and Chorus again then
Solo 1
e|--------------------------------------------------------|
B|-7b9-7-10b12-9------------------------------------------|
G|--------------------------------------------------------|
D|------------------------4---------4---------4---------4-|
A|-----------------3-4-5-6---3-4-5-6---3-4-5-6---3-4-5-6--|
E|----------------4---------4---------4---------4---------|

Then Guitar plays
e|-4-4--7-7--4-4--7-7-4-4--7-7--4-4--7-7 Then 4-4-4-4-4-4-4-4-| (tremelo pick)
B|-4-4--7-7--4-4--7-7-4-4--7-7--4-4--7-7----------------------|
G|------------------------------------------------------------|
D|------------------------------------------------------------|
A|------------------------------------------------------------|
E|------------------------------------------------------------|

Chorus
e|----------------------------------------------------------------|
B|----------------------------------------------------------------|
G|-6-6-6-6-6-6-6-6-6-6-6-6-6-6-6-6--------------------------------|
D|-6-6-6-6-6-6-6-6-6-6-6-6-6-6-6-6----------4---------4---------4-|
A|-4-4-4-4-4-4-4-4-4-4-4-4-4-4-4-4---3-4-5-6---3-4-5-6---3-4-5-6--|
E|----------------------------------4---------4---------4---------|

e|------------------------------------------------------------------|
B|------------------------------------------------------------------|
G|-6-6-6-6-6-6-6-6-6-6-6-6-6-6-6-6--8-8-8-8-8-8-8-8-8-8-8-8-8-8-8-8-|
D|-6-6-6-6-6-6-6-6-6-6-6-6-6-6-6-6--8-8-8-8-8-8-8-8-8-8-8-8-8-8-8-8-|
A|-4-4-4-4-4-4-4-4-4-4-4-4-4-4-4-4--6-6-6-6-6-6-6-6-6-6-6-6-6-6-6-6-|
E|------------------------------------------------------------------|

Outro
e|-------------------------------|
B|-------------------------------|
G|----5-8----8-11----5-8----8-11-|
D|-6-6----9-9-----6-6----9-9-----|
A|-------------------------------|
E|-------------------------------|

This is my first tab but i'm 99% sure it's all right! Thanks!
Добавлено: 22.11.2013
Другие материалы по этой песне:
  • Аккорды и текст

Страница создана 22.11.2013
http://primanota.ru/the-strypes/what-a-shame-chords.htm
Привет, Гость.
Предлагаем пройти революционный курс по гитаре.
Подарок от PrimaNota.Ru, забирай!