PrimaNota.ru - самый крупный в мире бесплатный архив песенных текстов, аккордов, табулатур и нот


The Strypes - So They Say - таба, видео

Регистрация Запомнить меня
Войти через:  Facebook Google Twitter Vk Yandex Mail.ru

The Strypes - So They Say - таба, видео

Печатать
Просмотров: 125
*Okay, so this is my first tab, and I am nowhere near as good at guitar as one Josh McClorey but
I really wanted to learn this song and I noticed there were no previous tabs of it so, bare with
me here,as it could be awful!*

This song was written by the Strypes who are Evan Walsh, Josh McClorey, Pete O'Hanlon and Ross Farrelly

h= hammer on
p= pull off


//Main Riff//

e|---------------------------------------------------------------------------|
B|-----------------------------------------1h3p1----1h3p1--------------------|
G|----0h2p0----0h2p0----0h2p0----0h2p0-0012-----0012---------0h2p0----0h2p0--|
D|0012-----0012-----0012-----0012------------------------0012-----0012-------|
A|---------------------------------------------------------------------------|
E|---------------------------------------------------------------------------|(repeat through out verses)

Jump into the middle
Forget about beginnings
She don't wanna waste any time
How far can you go
When you can never overstep the line

Cut it to the quick
Give her a little slap and tickle
She'll squeeze you and she might just bite
She was with your best friend
So she'll probably take you just in spite

//Chorus// (with this you can kind of just freestyle it a bit, its not meant to be a very technique heavy song 
so the amount of strums is kind of an estimate)
e|--------------------------------------|
B|--------------------------------------|
G|-9-98-77-66-55-55555-------55555-77777|
D|-9-88-77-66-55-55555-55555-55555-77777|
A|-7-66-55-44-33-33333-55555-33333-55555|
E|---------------------33333------------|

Get in
Let her have her way
It ain't a sin
To take her by the hand for a play
For a play
So they say
(back to main riff)

//second verse)
e|---------------------------------------------------------------------------|
B|-----------------------------------------1h3p1----1h3p1--------------------|
G|----0h2p0----0h2p0----0h2p0----0h2p0-0012-----0012---------0h2p0----0h2p0--|
D|0012-----0012-----0012-----0012------------------------0012-----0012-------|
A|---------------------------------------------------------------------------|
E|---------------------------------------------------------------------------|(repeat through-out verse)


Give a little dribble of divilment
Boy she's lookin' for a fiddle and a shake on the floor
Take her to the top don't stop
Y'know she's begging for more

Get her on the mixers
Fill her up with shots and stick her in the corner
Take her in to your arms
Leave nothin' behind
You gotta show a little teenage charm

//chorus//
e|--------------------------------------|
B|--------------------------------------|
G|-9-98-77-66-55-55555-------55555-77777|
D|-9-88-77-66-55-55555-55555-55555-77777|
A|-7-66-55-44-33-33333-55555-33333-55555|
E|---------------------33333------------|

Get in
Let her have her way
It ain't a sin
To take her by the hand for a play
For a play
So they say
(back to main riff)

e|---------------------------------------------------|
B|---------------------------------------------------|
G|----0h2p0----0h2p0----0h2p0----0h2p0-9-8--77-66-55-|
D|0012-----0012-----0012-----0012------9-8--77-66-55-|
A|-------------------------------------7-66-55-44-33-|
E|---------------------------------------------------|

//solo//
(which I am not able to tab :( If anyone can help me out here feel free to leave a comment!)

//Main Riff//

e|---------------------------------------------------------------------------|
B|-----------------------------------------1h3p1----1h3p1--------------------|
G|----0h2p0----0h2p0----0h2p0----0h2p0-0012-----0012---------0h2p0----0h2p0--|
D|0012-----0012-----0012-----0012------------------------0012-----0012-------|
A|---------------------------------------------------------------------------|
E|---------------------------------------------------------------------------|

Inject a little venom into heaven
And you'll find a load of angels filling up to get down
That's what it's like every Saturday night in my town!

 
Добавлено: 02.08.2015
Другие материалы по этой песне:
  • Аккорды и текст

Страница создана 02.08.2015
http://primanota.ru/the-strypes/so-they-say-chords.htm
Привет, Гость.
Предлагаем пройти революционный курс по гитаре.
Подарок от PrimaNota.Ru, забирай!