PrimaNota.ru - самый крупный в мире бесплатный архив песенных текстов, аккордов, табулатур и нот


The Strypes - A Good Nights Sleep And A Cab Fare Home - бас-таба, видео

Регистрация Запомнить меня
Войти через:  Facebook Google Twitter Vk Yandex Mail.ru

The Strypes - A Good Nights Sleep And A Cab Fare Home - бас-таба, видео

Печатать
Просмотров: 44
Уроки эстрадного вокала в Санкт-Петербурге
-------------------------------------------------------------------------------
                             A GOOD NIGHT SLEEP AND A CAB FARE HOME - THE STRYPES
-------------------------------------------------------------------------------
Tabbed by: massimopg
E-mail: massieg7@gmail.com

Tuning:standard


Intro:
G|---------------------------------------------------|
D|---------------------------------------------------|
A|-7--75--53-------(X1)---5h7777--5555--3333--3355---|(X1)
E|------------3--5-----------------------------------|

Verse:
G|-----------------------------------------------------|
D|-----------------------------------------------------|
A|-7777--5555--3333---------5h7777--5555--3333---------|(X1)
E|-------------------33--55---------------------33--55-|

Pre-Chorus:
G|------------------------------|
D|------------------------------|
A|-7777--5555--3333-------------|(X1)
E|-------------------3333-5555--|

Chorus:
G|------------------------------------------------------------|
D|------------------------------------------------------------|
A|-7777--5555--3333------------5h7777--5555--3333-------------|(X1)
E|-------------------3333-5555---------------------3333--5555-|

G|--------------------------|
D|--------------------------|
A|-7777--5555--3333---------|(X1)
E|-------------------33--55-|

Verse:
G|---------------------------|
D|---------------------------|
A|-5h7777--5555--3333--------|(X2)
E|--------------------33--55-|

Pre-Chorus:
G|------------------------------|
D|------------------------------|
A|-7777--5555--3333-------------|(X1)
E|-------------------3333-5555--|

Chorus:
G|------------------------------------------------------------|
D|------------------------------------------------------------|
A|-7777--5555--3333------------5h7777--5555--3333-------------|(X1)
E|-------------------3333-5555---------------------3333--5555-|

Bridge:
G|----------------------------------|
D|----------------------------------|
A|--------------------(X7)-77777777-|(X1)
E|-3h5-3h5-(drum fill)--------------|

G|-----------|
D|-----------|
A|-7--75--53-|
E|-----------|

Chorus:
G|------------------------------------------------------------|
D|------------------------------------------------------------|
A|-7777--5555--3333------------5h7777--5555--3333-------------|(X1)
E|-------------------3333-5555---------------------3333--5555-|

Outro:
G|-------------------------|
D|-------------------------|
A|-------------------------|
E|-33\5--33\5--33\5--33\5/1|


I'm almost certain that this is 100% accurate but I'm no Pete O'hanlon. ;)

| /  slide up
| \  slide down
| h  hammer-on
| p  pull-off
| ~  vibrato
| +  harmonic
| x  Mute note
===============================================================================
Добавлено: 07.02.2016
Другие материалы по этой песне:
  • Аккорды и текст

Страница создана 07.02.2016
http://primanota.ru/the-strypes/good-nights-sleep-and-a-cab-fare-home-chords.htm
Привет, Гость.
Предлагаем пройти революционный курс по гитаре.
Подарок от PrimaNota.Ru, забирай!