PrimaNota.ru - самый крупный в мире бесплатный архив песенных текстов, аккордов, табулатур и нот


The Strypes - Eighty-Four - таба, видео

Регистрация Запомнить меня
Войти через:  Facebook Google Twitter Vk Yandex Mail.ru

The Strypes - Eighty-Four - таба, видео

Печатать
Просмотров: 71
Eighty-Four - The Strypes

Standard Tunning

Tabbed by: Ben Barnier


Intro Pt.1

e|-------------------------------------|
B|-------------------------------------|
G|-------------------------------------| x2
D|-------------------------------------|
A|-16-16--16-16--16-16--16-16--16-16-16|
E|-14-14--14-14--14-14--14-14--14-14-14|

e|-------------------------------------|
B|-------------------------------------|
G|-------------------------------------| x2
D|-19-19--19-19--19-19--19-19--19-19-19|
A|-16-16--16-16--16-16--16-16--16-16-16|
E|-14-14--14-14--14-14--14-14--14-14-14|

or

e|----------| e|----------|
B|----------| B|----10----|
G|----------| G|----x-----|
D|----11----| D|----11----|
A|----9-----| A|----9-----|
E|----------| E|----------|

Intro Pt.2

e|-----------------------------------------------|
B|-----------------------------------------------|
G|-----------------------------------------------|
D|-----------------------------------------------|
A|----------0--2-0-4----0--2-0-4----0--2-0-4----0|
E|-14\---2-4---------2-4---------2-4---------2-4-|

e|-------------|
B|-------------|
G|-------------| x4
D|-------------|
A|-----0--2-0-4|
E|-2-4---------|

Verse

e|---------|----------|------|
B|---------|----------|------|
G|---------|-------2--|------|
D|-2h4~-2h4|----2---4~|------|
A|---------|------4---|-----0|
E|---------|----------|--2-4-|

Pre Chorus

e|--------------|
B|--------------|
G|--------------| x6
D|--------------|
A|------0--2-0-4|
E|-2--4---------|

e|----------------------|
B|----------------------|
G|-7-7-7-7-7-7-7-7-6-6-6|
D|-7-7-7-7-7-7-7-7-6-6-6|
A|-5-5-5-5-5-5-5-5-4-4-4|
E|----------------------|

Chorus

Ok, I think there is 2 ways to play it

Option 1

e|---------------|               e|---------------|
B|---------------|               B|---------------|
G|-7------4-----9| x3  and then  G|-7-----11-----9|
D|-7------4-----9|               D|-7-----11-----9|
A|-5------2-----7|               A|-5------9-----7|
E|---------------|               E|---------------|

Option 2

e|---------------|
B|---------------|
G|-7------11----9| x4
D|-7------11----9|
A|-5------9-----7|
E|---------------|

Well, I think the right way is the option 2, just look the hands of the guitarist and 
see the position
of them.

e|-------------|
B|-------------|
G|-------------| x4
D|-------------|
A|-----0--2-0-4|
E|-2-4---------|

Verse

e|-7b--5---------------|
B|------7~--5~---------|
G|-------------4~------|
D|---------------------|
A|--------------------0|
E|-----------------2-4-|

Repeat:

Pre Chorus
Chorus

Solo

e|-----10-9-7-------------------|----10-9-7-------------------|----10-9-7-------------------|
B|-(7)-------10-9-7---7--12b-12b|-(7)------10-9-7---7--9b-9b--|-(7)------10-9-7---7--12b-12b|
G|------------------9-----------|-----------------9-----------|-----------------9-----------|
D|------------------------------|-----------------------------|-----------------------------|
A|------------------------------|-----------------------------|-----------------------------|
E|------------------------------|-----------------------------|-----------------------------|

e|----10-9-7------------------|
B|-(7)------10-9-7---7--------|
G|-----------------9----------|
D|----------------------7-7--9|
A|----------------------------|
E|----------------------------|

Pre Chorus

e|-------------------------------|----------------------|
B|-------------------------------|----------------------|
G|-------------------------------|-7-7-7-7-7-7-7-7-6-6-6|
D|-------------------------------|-7-7-7-7-7-7-7-7-6-6-6|
A|----------0--2-0-4----0--2-0-4-|-5-5-5-5-5-5-5-5-4-4-4|
E|-14\---2-4---------2-4---------|----------------------|

Repeat:

Chorus x8

Ending

e|-------------------------------------|
B|-------------------------------------|
G|-------------------------------------| x2
D|-------------------------------------|
A|-16-16--16-16--16-16--16-16--16-16-16|
E|-14-14--14-14--14-14--14-14--14-14-14|

e|-------------------------------------|
B|-------------------------------------|
G|-------------------------------------| x2
D|-19-19--19-19--19-19--19-19--19-19-19|
A|-16-16--16-16--16-16--16-16--16-16-16|
E|-14-14--14-14--14-14--14-14--14-14-14|

e|-----|
B|-----|
G|-----|
D|-19\-|
A|-16\-|
E|-14\-|

or

e|----------| e|----------|
B|----------| B|----10----|
G|----------| G|----x-----|
D|----11----| D|----11----|
A|----9-----| A|----9-----|
E|----------| E|----------|

\  slide down
~  let ring
() ghost note
h  hammer on
b  bend
Добавлено: 07.02.2016
Вам также может быть интересно:
Другие материалы по этой песне:
  • Аккорды и текст

Страница создана 07.02.2016
http://primanota.ru/the-strypes/eighty-four-chords.htm
Привет, Гость.
Предлагаем пройти революционный курс по гитаре.
Подарок от PrimaNota.Ru, забирай!