PrimaNota.ru - самый крупный в мире бесплатный архив песенных текстов, аккордов, табулатур и нот


The Strypes - Cruel Brunette - таба, видео

Регистрация Запомнить меня
Войти через:  Facebook Google Twitter Vk Yandex Mail.ru

The Strypes - Cruel Brunette - таба, видео

Печатать
Просмотров: 64
Уроки эстрадного вокала в Санкт-Петербурге
-------------------------------------------------------------------------------
                             CRUEL BRUNETTE - The Strypes
-------------------------------------------------------------------------------
Tabbed by: Priccis

Help me improve this tab!:
Send message: my.ultimate-guitar.com/main.php?mode=pm&send_to=priccis

Great song by a great band that will rule the world in a future.
Easy and fun to play.

Will finish it soon. Contribute in the comments! 

Tuning: Standard



Start ( a regular E chord? ) , then:

E|--------------------------
B|--------------------------
G|-----------7--6--6--5--5--
D|--9--9--7--7--6--6--5--5--
A|--9--9--7--5--4--4--3--3--
E|--7--7--5-----------------

...just doing dares:

E|-----------------
B|-----------------
G|-----------------
D|--9--------------
A|--9--------------
E|--7--------------

And so, Armed with a conviction that bet....:

E|-----------------------------
B|-----------------------------
G|--6--6-----6-----4--4-----4--
D|--6--6-----6-----4--4-----4--
A|--4--4-----4-----2--2-----2--
E|-----------------------------

But the offer of a taxi....:

E|--------------
B|--------------
G|--7-----9-----
D|--7-----9-----
A|--5-----7-----
E|--------------

Chorus:

E|--------
B|--------
G|-----7--
D|--7--7--
A|--7--5--
E|--5-----

Useless to me nooooow:

E|------------------------------------------------------------
B|------------------------------------------------------------
G|--9--9--9--9--6--6--6--6------------------------------------
D|--------------------------9--9--9--9--7--7--7-----7-----7~--
A|-----------------------------------------------9-----9------
E|------------------------------------------------------------

Then Chorus again and the same solo but slightly different at the end.. (will update- upldated)

E|------------------------------------------------------------
B|------------------------------------------------------------
G|--9--9--9--9--6--6--6--6--------------------------7--6------
D|--------------------------9--9--9--9--7--7--7--9------------
A|------------------------------------------------------------
E|------------------------------------------------------------
(I play the last 2 notes sliding from 4 to 7 , then 6 and vibrate)

Main solo on work....

End: Cruel bruneeette:

E|-----------------------------
B|-----------------------------
G|-----------------------------
D|--9--7--5--4--1--4--5--7--9--
A|--9--7--5--4--1--4--5--7--9--
E|--7--5--3--2--0--2--3--5--7--




************************************

| /   slide up
| \   slide down
| h   hammer-on
| p   pull-off
| ~   vibrato
| +   harmonic
| x   Mute note
| b   Bend
| pb  Pre-bend
| br  Bend release
| pbr Pre-bend release
| brb Bend release bend

************************************
Добавлено: 07.02.2016
Другие материалы по этой песне:
  • Аккорды и текст

Страница создана 07.02.2016
http://primanota.ru/the-strypes/cruel-brunette-chords.htm
Привет, Гость.
Предлагаем пройти революционный курс по гитаре.
Подарок от PrimaNota.Ru, забирай!