PrimaNota.ru - самый крупный в мире бесплатный архив песенных текстов, аккордов, табулатур и нот


The Stray Birds - Best Medicine - таба, видео

Регистрация Запомнить меня
Войти через:  Facebook Google Twitter Vk Yandex Mail.ru

The Stray Birds - Best Medicine - таба, видео

Печатать
Просмотров: 138
-------------------------------------------------------------------------------
                             Best Medicine - The Stray Birds
-------------------------------------------------------------------------------
Tabbed by: Rillia 
E-mail: pessimistic.views@gmail.com

Tuning: standard, capo 2

Intro     Bm              Fm                  G                      
e|--------------|-------------------|-------------------|----------------------|
B|-------3------|-------------------|-------------------|----------------------|
G|---------4----|--------2----------|---------0---------|-------0--------0-----|
D|----4------4--|----------4----4---|-----------0-------|----------------------|
A|--2-----------|-----4------4------|------2------2-----|----2--------2--------|
E|--------------|--2----------------|--2/3--------------|--3--------2----------|
       Em                 G
e|----------------|-----------------|-------------------|---------0------------|
B|----------------|-----------------|-------------------|---------2------------|
G|-------0--------|----------0------|----------2--------|---------2------------|
D|---------2---2--|-------------0---|-------2-----2-----|---------2------------|
A|----2------2----|-------2-------2-|----0-----------0--|---------0------------|
E|--0-------------|--2/3------------|-------------------|---------x------------|

Verse 1   Bm              Fm                  G                      
e|--------------|-------------------|-------------------|----------------------|
B|-------3------|-------------------|-------------------|----------------------|
G|---------4----|--------2----------|---------0---------|-------0--------0-----|
D|----4------4--|----------4----4---|-----------0-------|----------------------|
A|--2-----------|-----4------4------|------2------2-----|----2--------2--------|
E|--------------|--2----------------|--2/3--------------|--3--------2----------|
  nothin'   my friend                is harder to leave              than the

       Em                 G
e|----------------|-----------------|-------------------|---------0------------|
B|----------------|-----------------|-------------------|---------2------------|
G|-------0--------|----------0------|----------2--------|---------2------------|
D|---------2---2--|-------------0---|-------2-----2-----|---------2------------|
A|----2------2----|-------2-------2-|----0-----------0--|---------0------------|
E|--0-------------|--2/3------------|-------------------|---------x------------|
   sound  of  a    town   with    am-bition  up  its     sleeve

       Bm               Fm                  G                      
e|--------------|-------------------|-------------------|----------------------|
B|-------3------|-------------------|-------------------|----------------------|
G|---------4----|--------2----------|---------0---------|-------0--------0-----|
D|----4------4--|----------4----4---|-----------0-------|----------------------|
A|--2-----------|-----4------4------|------2------2-----|----2--------2--------|
E|--------------|--2----------------|--2/3--------------|--3--------2----------|
  but this is my main street     my  red neon sign                     and I'm
       Em                 G
e|----------------|-----------------|-------------------|---------0------------|
B|----------------|-----------------|-------------------|---------2------------|
G|-------0--------|----------0------|----------2--------|---------2------------|
D|---------2---2--|-------------0---|-------2-----2-----|---------2------------|
A|----2------2----|-------2-------2-|----0-----------0--|---------0------------|
E|--0-------------|--2/3------------|-------------------|---------x------------|
  just another    record shop        hangin'  on  the   vine

 Verse 2
 Bm                   Fm                G
I walk like I've been kneelin' on these Rolling Stones
        Em              G               A
and the doctor tells me he can hear the Beatles in my bones
    Bm             Fm           G
You never know the gold you can find up there
         Em             G                A
'til you put the needle down and do some digging in the air

Chorus
D    G    D           G            D
Well well well, all I see is all I tell
   A                          G             D
I never met a stranger to the bottom of the well
G      D    G    D           G         D
If the body is a temple, the soul is a bell
               A                 G          D
and that's why music is the best medicine I sell


Bridge
e|-------------|--------------------|-----------------|------------------------|
B|-------0--2--|---3-2-0------------|---2-0-----------|--------3---------------|
G|-----2-------|----------2---------|-------2----2----|---2/4-----4\2---2------|
D|---4---------|-------------4-4----|----------4---0--|------------------------|
A|-------------|--------------------|-----------------|------------------------|
E|-------------|--------------------|-----------------|------------------------|

e|--------------------|--0---0-0--0h2-0----|------------------|----------------------|
B|-------3-------0-3--|-----------------3--|-------3---3------|--2-2-2--3-3-3h5~~~---|
G|---2/4---4\2--------|--------------------|---2/4---4---4--2-|--2-2-2--2-2-2-2~~~---|
D|--------------------|--------------------|------------------|----------------------|
A|--------------------|--------------------|------------------|----------------------|
E|--------------------|--------------------|------------------|----------------------|

e|-------------|--------------------|-----------------------|-------------------|
B|-------------|--3-2-0-----2-0-----|-----------------------|-------------------|
G|--4--2-------|--------2-------2---|-----------------------|--------0------0---|
D|--------4-2--|----------4-------4-|-0-0-2-4-4/5-5-4-4-2-2-|-0-----------------|
A|-------------|--------------------|-----------------------|----0h2----0h2-----|
E|-------------|--------------------|-----------------------|-------------------|

e|--------------------------|---------------------|----0-----------|------------------|
B|--------------------------|---------------------|--2---2-0---3~~-|------------------|
G|-------0----0-0----0-2-0--|----0-0---2---2--4---|----------2-2~~-|----2-------------|
D|--0-2-----4-----4---------|--4-----4---4--------|----------------|--4---4-2-0-------|
A|--------------------------|---------------------|----------------|------------2-0---|
E|--------------------------|---------------------|----------------|------------------|

Chorus
D    G    D           G            D
Well well well, all I see is all I tell
   A                          G             D
I never met a stranger to the bottom of the well
G      D    G    D           G         D
If the body is a temple, the soul is a bell
               A                 G          D     G    D
and that's why music is the best medicine I sell, well well
          G            D
 all I see is all I tell
   A                          G             D
I never met a stranger to the bottom of the well
G      D    G    D           G         D
If the body is a temple, the soul is a bell
               A                 G          D
and that's why music is the best medicine I sell

Outro

e|--------------------|-----------------|------------------------|
B|---3-2-0------------|---2-0-----------|--------3---------------|
G|----------2---------|-------2----2----|---2/4-----4\2---2------|
D|-------------4-4----|----------4---0--|------------------------|
A|--------------------|-----------------|------------------------|
E|--------------------|-----------------|------------------------|

e|--------------------|--0---0-0--0h2-0----|----------------|--0--0--0---0--0---0h2-----|
B|-------3-------0-3--|-----------------3--|-------3---3----|--2--2--2---3--3-----3-----|
G|---2/4---4\2--------|--------------------|---2/4---4---4--|---------------------2-----|
D|--------------------|--------------------|----------------|---------------------0-----|
A|--------------------|--------------------|----------------|---------------------x-----|
E|--------------------|--------------------|----------------|---------------------x-----|

************************************

| /   slide up
| \   slide down
| h   hammer-on
| p   pull-off
| ~   vibrato
| +   harmonic
| x   Mute note
| b   Bend
| pb  Pre-bend
| br  Bend release
| pbr Pre-bend release
| brb Bend release bend

************************************
Добавлено: 01.08.2015
Другие материалы по этой песне:
  • Аккорды и текст

Страница создана 01.08.2015
http://primanota.ru/the-stray-birds/best-medicine-chords.htm
Привет, Гость.
Предлагаем пройти революционный курс по гитаре.
Подарок от PrimaNota.Ru, забирай!