PrimaNota.ru - самый крупный в мире бесплатный архив песенных текстов, аккордов, табулатур и нот


The Story So Far - Under Soil And Dirt (album) - таба, видео

Регистрация Запомнить меня
Войти через:  Facebook Google Twitter Vk Yandex Mail.ru

The Story So Far - Under Soil And Dirt (album) - таба, видео

Печатать
Просмотров: 94
-------------------------------------------------------------------------------
                             Under Soil and Dirt - The Story So Far
-------------------------------------------------------------------------------
Tabbed by:Tjlax03
E-mail:Tjlax03@gmail.com

Tuning:Standard
I just compiled all of the existing tabs for this album into one tab to make it easier to read. The authors 
names are next to the track

Track listing:
1. States and Minds-x3ricxblink182
2. Roam-x3ricxblink182
3. Quicksand-x3ricxblink182
4. Swords and Pens-Tjlax03
5. High Regard-VintageBassline
6. Daughters-VintageBassline
7. Mt. Diablo-x3ricxblink182
8. Four Years-jstrosnider123
9. Rally Cap-x3ricxblink182
10. Placeholder-x3ricxblink182
11. Closure-x3ricxblink182

-------------------------------------------------------------------------------------------------------------
1.States and Minds-x3ricxblink182
-------------------------------------------------------------------------------------------------------------

Intro:

Guitar 1:

E|--0-xx-0-xx-0-xx-0-xx-0-0-77-xx-0-xx-77-xx-0-xx-0-0--|
B|--9-xx-5-xx-7-xx-5-xx-4h5-55-xx-5-xx-55-xx-5-xx-5/7--|
G|-----------------------------------------------------|
D|-----------------------------------------------------|
A|-----------------------------------------------------|
E|-----------------------------------------------------| x4


Guitar 2:

Palm-Muted:

E|---------------------------------------|
B|---------------------------------------|
G|---------------------------------------|
D|--444-----666--------------------------|
A|--222-222-444-222-44-66-7777777777777--|
E|------000-----000-22-44-5555555555555--| 

E|-------------------------|
B|-------------------------|
G|-------------------------|
D|--444-----666------------|
A|--222-222-444-222-44-66--|
E|------000-----000-22-44--|

E|---0-0-0~---|
B|---0-0-0~---|
G|---2-2-2~---|
D|---2-2-2~---|
A|---0-0-0~---|
E|------------|


Guitar 1:

E|--0-xx-0-xx-0-xx-0-xx-0-0-77-xx-0-xx-77-xx-0-xx-0-0--|
B|--9-xx-5-xx-7-xx-5-xx-4h5-55-xx-5-xx-55-xx-5-xx-5/7--|
G|-----------------------------------------------------|
D|-----------------------------------------------------|
A|-----------------------------------------------------|
E|-----------------------------------------------------| x4


Guitar 2:

E|---------------------------------------|
B|---------------------------------------|
G|--444-----666--------------------------|
D|--444-222-666-222-44-66-7777777777777--|
A|--222-222-444-222-44-66-7777777777777--|
E|------000-----000-22-44-5555555555555--| x3

E|-------------------------|
B|-------------------------|
G|--444-----666------------|
D|--444-222-666-222-44-66--|
A|--222-222-444-222-44-66--|
E|------000-----000-22-44--|

E|---0-0-0~---|
B|---0-0-0~---|
G|---2-2-2~---|
D|---2-2-2~---|
A|---0-0-0~---|
E|------------|



... I'm Falling In And Out Again ...


-------------------------------------------------------------------------------------------------------------
2. Roam-x3ricxblink182
-------------------------------------------------------------------------------------------------------------

(Note rings out from 'States and Minds')


Intro Part 1:

E|--4-4-4-4-44-4-4-44-4-4-44-44--0-0-0-0-00-0-0-00-0-0-00-00---|
B|--5-5-5-5-55-5-5-55-5-5-55-55--7-7-7-7-77-7-7-77-7-7-77-77---|
G|-------------------------------------------------------------|
D|-------------------------------------------------------------|
A|-------------------------------------------------------------|
E|-------------------------------------------------------------|

Intro Part 2 / Chorus:

E|---------------------------------------------------|
B|---------------------------------------------------|
G|-13-13-13-13-13-11--13-13-13-13-1313-13-13-1313----|
D|--x--x--x--x--x-x----x--x--x--x--x-x--x--x--x-x----|
A|-11-11-11-11-11\9---11-11-11-11-1111-11-11-1111----|
E|---------------------------------------------------|

E|------------------------------------------------|
B|------------------------------------------------|
G|-13-13-13-13-13-11--13-13-13-13-1313--9-9/1111--|
D|--x--x--x--x--x-x----x--x--x--x--x-x--x-x-x-x---|
A|-11-11-11-11-11\9---11-11-11-11-1111--7-7/9-9---|
E|------------------------------------------------|

E|---------------------------------------------------|
B|---------------------------------------------------|
G|-13-13-13-13-13-11--13-13-13-13-1313-13-13-1313----|
D|--x--x--x--x--x-x----x--x--x--x--x-x--x--x--x-x----|
A|-11-11-11-11-11\9---11-11-11-11-1111-11-11-1111----|
E|---------------------------------------------------|

E|--------------------|
B|--------------------|
G|--9-xx-9-xx-9-13----|
D|--x-xx-x-xx-x--x----|
A|--7-xx-7-xx-7/11----|
E|--------------------|


Verse:

"Give up and go home..."

E|-----------------------------|
B|-----------------------------|
G|-------------444444-444444---|
D|-2-2-2-2-22--222222-444444---|
A|-2-2-2-2-22--444444-222222---|
E|-0-0-0-0-00------------------| x2

E|-0-0-0-0---0--0-0--0-0-0-0--0-0---|
B|-5-5-7-9--12-12-9--7-7-7-5-10\9---|
G|----------------------------------|
D|----------------------------------|
A|----------------------------------|
E|----------------------------------| x4


Pre-Chorus:

E|-4-4-4-4-4-4-4-4-0-0-0-0-0-0-0-0--|
B|-5-5-5-5-5-5-5-5-7-7-7-7-9-9-7-7--|
G|----------------------------------|
D|----------------------------------|
A|----------------------------------|
E|----------------------------------|

E|-4-4-4-4-4-4-4-4-0-0-0-0-0-0-0-0--|
B|-5-5-5-5-5-5-5-5-7-7-7-7-7-7-7-7--|
G|----------------------------------|
D|----------------------------------|
A|----------------------------------|
E|----------------------------------|


Chorus:

E|---------------------------------------------------|
B|---------------------------------------------------|
G|-13-13-13-13-13-11--13-13-13-13-1313-13-13-1313----|
D|--x--x--x--x--x-x----x--x--x--x--x-x--x--x--x-x----|
A|-11-11-11-11-11\9---11-11-11-11-1111-11-11-1111----|
E|---------------------------------------------------|

E|------------------------------------------------|
B|------------------------------------------------|
G|-13-13-13-13-13-11--13-13-13-13-1313--9-9/1111--|
D|--x--x--x--x--x-x----x--x--x--x--x-x--x-x-x-x---|
A|-11-11-11-11-11\9---11-11-11-11-1111--7-7/9-9---|
E|------------------------------------------------|

E|---------------------------------------------------|
B|---------------------------------------------------|
G|-13-13-13-13-13-11--13-13-13-13-1313-13-13-1313----|
D|--x--x--x--x--x-x----x--x--x--x--x-x--x--x--x-x----|
A|-11-11-11-11-11\9---11-11-11-11-1111-11-11-1111----|
E|---------------------------------------------------|

E|--------------------|
B|--------------------|
G|--9-xx-9-xx-9-13----|
D|--x-xx-x-xx-x--x----|
A|--7-xx-7-xx-7/11----|
E|--------------------|


Verse:

"Think I'll go and roam outside your boundary..."

E|-----------------------------|
B|-----------------------------|
G|-------------444444-444444---|
D|-2-2-2-2-22--222222-444444---|
A|-2-2-2-2-22--444444-222222---|
E|-0-0-0-0-00------------------| x4

"No SOS until the bottles are empty..."

E|-----------------------------------|
B|-----------------------------------|
G|-9999999911111111-13131313131313---|
D|-xxxxxxxx-xxxxxxx--x-x-x-x-x-x-x---|
A|-77777777-9999999-11111111111111---|
E|-----------------------------------| 


Bridge:     ( x6 )

E|----------------------------|
B|----------------------------|
G|----------------------------|
D|----2/4---4/6---2/4---4/6---|
A|--0-----0-----0-----0-------|
E|----------------------------|

E|---------------------------|
B|---------------------------|
G|-----------------4~--4~----|
D|----2/4---4/6---2---2------|
A|---------------4-----------|
E|--0-----0---------4--------|


Pre-Chorus:

E|-4-4-4-4-4-4-4-4-0-0-0-0-0-0-0-0--|
B|-5-5-5-5-5-5-5-5-7-7-7-7-9-9-7-7--|
G|----------------------------------|
D|----------------------------------|
A|----------------------------------|
E|----------------------------------|

E|-4-4-4-4-4-4-4-4-0-0-0-0-0-0-0-0--|
B|-5-5-5-5-5-5-5-5-7-7-7-7-7-7-7-7--|
G|----------------------------------|
D|----------------------------------|
A|----------------------------------|
E|----------------------------------|


Chorus:    ( x2 )

E|---------------------------------------------------|
B|---------------------------------------------------|
G|-13-13-13-13-13-11--13-13-13-13-1313-13-13-1313----|
D|--x--x--x--x--x-x----x--x--x--x--x-x--x--x--x-x----|
A|-11-11-11-11-11\9---11-11-11-11-1111-11-11-1111----|
E|---------------------------------------------------|

E|------------------------------------------------|
B|------------------------------------------------|
G|-13-13-13-13-13-11--13-13-13-13-1313--9-9/1111--|
D|--x--x--x--x--x-x----x--x--x--x--x-x--x-x-x-x---|
A|-11-11-11-11-11\9---11-11-11-11-1111--7-7/9-9---|
E|------------------------------------------------|

E|---------------------------------------------------|
B|---------------------------------------------------|
G|-13-13-13-13-13-11--13-13-13-13-1313-13-13-1313----|
D|--x--x--x--x--x-x----x--x--x--x--x-x--x--x--x-x----|
A|-11-11-11-11-11\9---11-11-11-11-1111-11-11-1111----|
E|---------------------------------------------------|

E|--------------------|
B|--------------------|
G|--9-xx-9-xx-9-13----|
D|--x-xx-x-xx-x--x----|
A|--7-xx-7-xx-7/11----|
E|--------------------|

-------------------------------------------------------------------------------------------------------------
3.Quicksand-x3ricxblink182
-------------------------------------------------------------------------------------------------------------

Intro:

E|-----------------------|
B|-----------------------|
G|-----------------------|
D|-----------------------|
A|---88-8-88-8-88-8-8x---|
E|---66-6-66-6-66-6-6x---|


Verse:

"...Hold on much longer"

Rhythm:

E|----------------------------------|
B|----------------------------------|
G|----------77-7-7------------------|
D|--33-3-3--77-7-7--88-8-8-88-8-8---|
A|--33-3-3--55-5-5--88-8-8-88-8-8---|
E|--11-1-1----------66-6-6-66-6-6---| x4

Lead:

E|-----------------------------------------|
B|-----------------------------------------|
G|--10-1010-1919-19-19--10-1010-55-5-5-----|
D|--xx-x-x---x-x--x--x--xx-x-x--xx-x-x-----|
A|--88-8-8--1717-17-17--88-8-8-\33-3-3-----|
E|-----------------------------------------| x3

E|--------------------------|
B|--------------------------|
G|--10-101010-1414--1212----|
D|--xx-x-x-x---x-x---x-x----|
A|--88-8-8-8-/1212--1010----|
E|--------------------------|


"That's..."

"it."

E|-------------------------|
B|-------------------------|
G|-------------------------|
D|---------8----7----8p7---|
A|----8----10---8----8-8---|
E|-xx-6-xx-6-xx-6-xx-6-6---| x4


Chorus:

"This quicksand..."

Rhythm:

E|-----------------------|
B|-----------------------|
G|-----------------------|
D|--8-888888-8-888888----|
A|--8-888888-8-888888----|
E|--6-666666-6-666666----|

E|------------------------------------------|
B|------------------------------------------|
G|------------------------------------------|
D|--3-333333-2-222222--8-888888-8-888888----|
A|--3-333333-3-333333--8-888888-8-888888----|
E|--1-111111-0-000000--6-666666-6-666666----| x4

Lead:

E|-----------------------|
B|-----------------------|
G|-10-101010-5-555555----|
D|--x-xxxxxx-x-xxxxxx----|
A|--8-888888-3-333333----|
E|-----------------------|

E|-----------------------------------------|
B|-----------------------------------------|
G|-10-101010-9-10101010-10101010-5-55555---|
D|--x-xxxxxx-x-x-xxxxxx-x-xxxxxx-x-xxxxx---|
A|--8-888888-7/8-888888-8-888888-3-33333---|
E|-----------------------------------------|

E|------------------------------|
B|------------------------------|
G|-10-10101010-9-10-14-12-10----|
D|--x-xxxxxxx--x-x--x--x--x-----|
A|--8-8888888--7/8--12-10-8-----|
E|------------------------------|

"Unintended consequences..."

E|--6p5--8p5--6p5--8p5--6p5-5---|
B|-----6----6----6----8----6----|
G|------------------------------|
D|------------------------------|
A|------------------------------|
E|------------------------------| x4



Verse 2:
E|-------|
B|-------|
G|-------|
D|--7~---|
A|--8~---|
E|--6~---|


"Biting the bait..."

E|-------------------------|
B|-------------------------|
G|-------------------------|
D|---------8----7----8p7---|
A|----8----10---8----8-8---|
E|-xx-6-xx-6-xx-6-xx-6-6---| x4

"But I'd rather gamble..."

E|-----5----6----8----5-555---|
B|--xx-6-xx-6-xx-6-xx-6-666---|
G|----------------------------|
D|----------------------------|
A|----------------------------|
E|----------------------------| x4

"Waste my breath.."

E|---------|
B|---------|
G|---------|
D|--8-8~---|
A|--8-8~---|
E|--6-6~---|

E|-----------------|
B|-----------------|
G|-----------------|
D|--7---10----7----|
A|--8----8----8----|
E|--6-xx-6-xx-6----|

E|-------------|
B|-------------|
G|-------------|
D|----8----8---|
A|---10---10---|
E|-xx-6-xx-6---|


Chorus:

"This quicksand..."

Rhythm:

E|-----------------------|
B|-----------------------|
G|-----------------------|
D|--8-888888-8-888888----|
A|--8-888888-8-888888----|
E|--6-666666-6-666666----|

E|------------------------------------------|
B|------------------------------------------|
G|------------------------------------------|
D|--3-333333-2-222222--8-888888-8-888888----|
A|--3-333333-3-333333--8-888888-8-888888----|
E|--1-111111-0-000000--6-666666-6-666666----| x4

Lead:

E|-----------------------|
B|-----------------------|
G|-10-101010-5-555555----|
D|--x-xxxxxx-x-xxxxxx----|
A|--8-888888-3-333333----|
E|-----------------------|

E|-----------------------------------------|
B|-----------------------------------------|
G|-10-101010-9-10101010-10101010-5-55555---|
D|--x-xxxxxx-x-x-xxxxxx-x-xxxxxx-x-xxxxx---|
A|--8-888888-7/8-888888-8-888888-3-33333---|
E|-----------------------------------------|

E|------------------------------|
B|------------------------------|
G|-10-10101010-9-10-14-12-10----|
D|--x-xxxxxxx--x-x--x--x--x-----|
A|--8-8888888--7/8--12-10-8-----|
E|------------------------------|

"Unintended consequences..."

E|--6p5--8p5--6p5--8p5--6p5-5---|
B|-----6----6----6----8----6----|
G|------------------------------|
D|------------------------------|
A|------------------------------|
E|------------------------------| x4


Bridge:

E|--5~~------6-8~~------|
B|--6~~------6/6~~------|
G|--3~~-----------------|
D|----------------------|
A|----------------------|
E|----------------------|
"

I'm trying hard"

E|---------------------------------|
B|---------------------------------|
G|---------------------55-5-77-7---|
D|--88--8-33--3-22--2--55-5-77-7---|
A|--88--8-33--3-33--3-/33-3-55-5---|
E|--66--6\11--1-00--0--------------| x2

E|----------------------------------|
B|----------------------------------|
G|--7-9-10-141414141414--12-14-10---|
D|--x-x-x---x-x-x-x-x-x---x--x--x---|
A|--5-7/8-/121212121212--10-12--8---|
E|----------------------------------| x2


"Temper..."

E|--------------------------------|
B|--------------------------------|
G|--7-9-10-14----12-10-12-14-12---|
D|--x-x-x---x-----x--x--x--x--x---|
A|--5-7/8-/12---\10--8-10-12-10---|
E|--------------------------------| x4

End:

E|--------------------------|
B|--------------------------|
G|---7~~~----5~~~-----------|
D|---x~~~----x~~~~----------|
A|---5~~~--\\3~~~~----------|
E|--------------------------|


-------------------------------------------------------------------------------------------------------------
4.Swords & Pens
-------------------------------------------------------------------------------------------------------------

NO CAPO


Intro
e|--------------------------------------|
B|--------------------------------------|
G|--------------------------------------|
D|4-4-xx-4-4-4-xx-4-4-4-xx-4-8-6--------|x2
A|4-4-xx-4-4-4-xx-4-4-4-xx-4-8-6--------|
E|1-1-xx-2-1-1-xx-2-1-1-xx-2-6-4--------|

e|--------------------------------------|
B|--------------------------------------|
G|--------------------------------------|
D|4-4-xx-4-4-4-xx-4-4-4-xx-4-8-6--------|
A|4-4-xx-4-4-4-xx-4-4-4-xx-4-8-6--------|
E|1-1-xx-2-1-1-xx-2-1-1-xx-2-6-4--------|

e|--------------------------------------|
B|--------------------------------------|
G|--------------------------------------|
D|4-4-xx-4-4-4-xx-4-4-4-xx-4-8-6--------|
A|4-4-xx-4-4-4-xx-4-4-4-xx-4-8-6--------|
E|1-1-xx-2-1-1-xx-2-1-1-xx-2-6-4--------|

e|--------------------------------------|
B|--------------------------------------|
G|--------------------------------------|
D|4-4-xx-4-4-4-xx-4-4-4-xx-4-8-6--------|
A|4-4-xx-4-4-4-xx-4-4-4-xx-4-8-6--------|
E|1-1-xx-2-1-1-xx-2-1-1-xx-2-6-4--------|

e|--------------------------------------|
B|--------------------------------------|
G|--------------------------------------|
D|44444444-6666-888-6-------------------|
A|44444444-6666-888-6-------------------|
E|22222222-4444-666-4-------------------|

Verse
e|--------------------------------------|
B|--------------------------------------|
G|--------------------------------------|x2
D|44444444-6666-888-6-------------------|
A|44444444-6666-888-6-------------------|
E|22222222-4444-666-4-------------------|

e|---------------------------------------------------------------------------|
B|---------------------------------------------------------------------------|
G|---------------------------------------------------------------------------|
D|4----------------6-6-8-4----------6666-------------------------------------|
A|2-LET RING-------6-6-8-4-LET RING-6666-------------------------------------|
E|2----------------4-4-6-2----------4444-------------------------------------|
        
e|---------------------------------------------------------------------------|
B|---------------------------------------------------------------------------|
G|---------------------------------------------------------------------------|
D|44444444-8888-111111-13-----4----------------------------------------------|
A|44444444-8888-111111-13--x2-4----------------------------------------------|
E|22222222-6666-9-9-9--11-----2----------------------------------------------|

"I'm fallin' in and out again"

Pre-Chorus

e|---------------------------------------------------------------------------|
B|---------------------------------------------------------------------------|
G|---------------------------------------------------------------------------|
D|666--44444444-6666-8886-44444444--6666-------------------------------------|
A|666--44444444-6666-8886-44444444--6666-888-666-----------------------------|
E|444--22222222-4444-6664-22222222--4444-666-444-----------------------------|

Chorus
e|---------------------------------------------------------------------------|
B|---------------------------------------------------------------------------|
G|-----6666------------------------------------------------------------------|
D|4444-6666-8888-6666--------------------------------------------------------|x4
A|4444-4444-8888-6666--------------------------------------------------------|
E|2222------6666-4444--------------------------------------------------------|

e|---------------------------------------------------------------------------|
B|---------------------------------------------------------------------------|
G|---------------------------------------------------------------------------|
D|4-8-6--4-8-6---------------------------------------------------------------|
A|4-8-6--4-8-6---------------------------------------------------------------|
E|2-6-4--2-6-4---------------------------------------------------------------|

Post Chorus
e|---------------------------------------------------------------------------|
B|---------------------------------------------------------------------------|
G|---------------------------------------------------------------------------|
D|4-xx-4-xx-4-xx-4-xx-44-8-xx-8-xx-8-xx-8-xx-86------------------------------|x2
A|4-xx-4-xx-4-xx-4-xx-44-8-xx-8-xx-8-xx-8-xx-86------------------------------|
E|2-xx-2-xx-2-xx-2-xx-22-6-xx-6-xx-6-xx-6-xx-64------------------------------|

e|---------------------------------------------------------------------------|
B|---------------------------------------------------------------------------|
G|---------------------------------------------------------------------------|
D|4-xx-4-xx-4-xx-4-xx-66-----------------------------------------------------|
A|4-xx-4-xx-4-xx-4-xx-66-----------------------------------------------------|
E|2-xx-2-xx-2-xx-2-xx-44-----------------------------------------------------|

Chorus

Ending
e|--------------------------------------|
B|--------------------------------------|
G|--------------------------------------|
D|44444444------------------------------|
A|44444444------------------------------|
E|22222222------------------------------|
PM-------]

e|--------------------------------------|
B|--------------------------------------|
G|--------------------------------------|
D|4-4-xx-4-4-4-xx-4-4-4-xx-4-8-6--------|x4
A|4-4-xx-4-4-4-xx-4-4-4-xx-4-8-6--------|
E|1-1-xx-2-1-1-xx-2-1-1-xx-2-6-4--------|


e|--------------------------------------|
B|--------------------------------------|
G|--------------------------------------|
D|4-3-4-3-4-3-8-6-4---------------------|
A|4-3-4-3-4-3-8-6-4---------------------|
E|2-1-2-1-2-1-6-4-2---------------------|

-------------------------------------------------------------------------------------------------------------
5.High Regard-VintageBassline
-------------------------------------------------------------------------------------------------------------

Guitar 1: Rhythm, Standard (EADGBe)
Guitar 2: Lead, Standard (EADGBe)

Guitar 1
Intro
E|--------------------------------|--------------------------------|
B|--------------------------------|--------------------------------|
G|--------------------------------|--------------------------------|
D|--------------------------------|--------------------------------|
A|--------------------------------|--------------------------------|
E|--------------------------------|--------------------------------|

E|--------------------------------|--------------------------------|
B|--------------------------------|--------------------------------|
G|-7-7-7-------2---2-------2---2--|-4-4-4-2-2-2-2---2-------2---2--|
D|-7-7-7-5-5-5---4---4-5-5---4---4|-4-4-4-2-2-2---4---4-5-5---4---4|
A|-5-5-5-5-5-5---------5-5--------|-2-2-2-0-0-0---------5-5--------|
E|-------3-3-3---------3-3--------|---------------------3-3--------|
PM . . . . . . . . . . . . . . . .  . . . . . . . . . . . . . . . .
E|--------------------------------|--------------------------------|
B|--------------------------------|--------------------------------|
G|-7-7-7-------2---2-------2---2--|-4-4-4-2-2-2-2---2-------2---2--|
D|-7-7-7-5-5-5---4---4-5-5---4---4|-4-4-4-2-2-2---4---4-5-5---4---4|
A|-5-5-5-5-5-5---------5-5--------|-2-2-2-0-0-0---------5-5--------|
E|-------3-3-3---------3-3--------|---------------------3-3--------|
   . . . . . . . . . . . . . . . .  . . . . . . . . . .
E|--------------------------------|--------------------------------|
B|--------------------------------|--------------------------------|
G|-7-7-7--------------------------|-4-4-4-2-2-2-2-2-2-2------------|
D|-7-7-7-5-5-5-5-5-5-5-5-5-5-5-5-5|-4-4-4-2-2-2-2-2-2-2-5-5-5-5-5-5|x2
A|-5-5-5-5-5-5-5-5-5-5-5-5-5-5-5-5|-2-2-2-0-0-0-0-0-0-0-5-5-5-5-5-5|
E|-------3-3-3-3-3-3-3-3-3-3-3-3-3|---------------------3-3-3-3-3-3|

E|--------------------------------|--------------------------------|
B|--------------------------------|--------------------------------|
G|--------------------------------|--------------------------------|
D|--------------------------------|--------------------------------|
A|-5-5-5-5-5-5-5-5-5-5-5-5-5-5-5-5|-5-5-5-5-5-5-5-5-5-5-5-5-5-5-5-5|
E|--------------------------------|--------------------------------|
   . . . . . . . . . . . . . . . .  gradually release
Verse 1
E|--------------------------------|--------------------------------|
B|--------------------------------|--------------------------------|
G|---------------2-2-------4-4-4--|---------------4-4-------2-2-2--|
D|-5-5-----------2-2-------4-4-4-5|-5-5-----------4-4-------2-2-2-5|x4
A|-5-5-----------0-0-------2-2-2-5|-5-5-----------2-2-------0-0-0-5|
E|-3-3---------------------------3|-3-3---------------------------3|

Pre chorus 1
E|--------------------------------|--------------------------------|
B|--------------------------------|--------------------------------|
G|-7-------2------2---2-2-2-------|-4---2---2-----2---2-2-2--------|
D|-7---5---2------2---2-2-2-------|-4---2---2-----2---2-2-2--------|
A|-5---5---0------0---0-0-0-------|-2---0---0-----0---0-0-0--------|
E|-----3--------------------------|--------------------------------|

Chorus
E|--------------------------------|--------------------------------|
B|--------------------------------|--------------------------------|
G|-7-7-7--------------------------|-4-4-4-2-2-2-2-2-2-2------------|
D|-7-7-7-5-5-5-5-5-5-5-5-5-5-5-5-5|-4-4-4-2-2-2-2-2-2-2-5-5-5-5-5-5|x4
A|-5-5-5-5-5-5-5-5-5-5-5-5-5-5-5-5|-2-2-2-0-0-0-0-0-0-0-5-5-5-5-5-5|
E|-------3-3-3-3-3-3-3-3-3-3-3-3-3|---------------------3-3-3-3-3-3|

Verse 2
E|--------------------------------|--------------------------------|
B|--------------------------------|--------------------------------|
G|-7-7-7-------2---2-------2---2--|-4-4-4-2-2-2-2---2-------2---2--|
D|-7-7-7-5-5-5---4---4-5-5---4---4|-4-4-4-2-2-2---4---4-5-5---4---4|x2
A|-5-5-5-5-5-5---------5-5--------|-2-2-2-0-0-0---------5-5--------|
E|-------3-3-3---------3-3--------|---------------------3-3--------|
PM . . . . . .         . .          . . . . . .         . .    
E|--------------------------------|--------------------------------|
B|--------------------------------|--------------------------------|
G|-7-7-7--------------------------|-4-4-4-2-2-2-2-2-2-2------------|
D|-7-7-7-5-5-5-5-5-5-5-5-5-5-5-5-5|-4-4-4-2-2-2-2-2-2-2-5-5-5-5-5-5|x2
A|-5-5-5-5-5-5-5-5-5-5-5-5-5-5-5-5|-2-2-2-0-0-0-0-0-0-0-5-5-5-5-5-5|
E|-------3-3-3-3-3-3-3-3-3-3-3-3-3|---------------------3-3-3-3-3-3|
   . .   . . .         . .          . .   . . .         . .
Pre chorus 2
E|--------------------------------|--------------------------------|
B|--------------------------------|--------------------------------|
G|-7-7-7-------2---2-------2---2--|-4-4-4-2-2-2-2---2-------2---2--|
D|-7-7-7-5-5-5---4---4-5-5---4---4|-4-4-4-2-2-2---4---4-5-5---4---4|
A|-5-5-5-5-5-5---------5-5--------|-2-2-2-0-0-0---------5-5--------|
E|-------3-3-3---------3-3--------|---------------------3-3--------|
   . . . . . . . . . . . . . . . .  . . . . . . . . . . . . . . . .
E|--------------------------------|--------------------------------|
B|--------------------------------|--------------------------------|
G|-7-7-7-------2---2-------2---2--|-4-4-4-2-2-2-2---2-------2---2--|
D|-7-7-7-5-5-5---4---4-5-5---4---4|-4-4-4-2-2-2---4---4-5-5---4---4|
A|-5-5-5-5-5-5---------5-5--------|-2-2-2-0-0-0---------5-5--------|
E|-------3-3-3---------3-3--------|---------------------3-3--------|
   . . . . . . . . . . . . . . . .  . . . . . . . . . . 

Chorus same as last

Bridge
E|--------------------------------|
B|--------------------------------|
G|-7---4---2----------------------|
D|-7---4---2----------------------|
A|-5---2---0----------------------|
E|--------------------------------|

E|--------------------------------|--------------------------------|
B|--------------------------------|--------------------------------|
G|-7---4---2----------------------|---------7----------------------|
D|-7---4---2----------------------|-5---5---7----------------------|x5
A|-5---2---0----------------------|-5---5---5----------------------|
E|--------------------------------|-3---3--------------------------|

E|--------------------------------|--------------------------------|
B|--------------------------------|--------------------------------|
G|-7---4---2----------------------|--------------------------------|
D|-7---4---2----------------------|-5---5---5----------------------|
A|-5---2---0----------------------|-5---5---5----------------------|
E|--------------------------------|-3---3---3----------------------|
                                    .   .   .
Last chorus
E|--------------------------------|
B|--------------------------------|
G|--------------------------------|
D|--------------------------------|x3 
A|--------------------------------|
E|--------------------------------|

E|--------------------------------|
B|--------------------------------|
G|--------------------------------|
D|----------------------------5---|
A|----------------------------5---|
E|----------------------------3---|

E|--------------------------------|--------------------------------|
B|--------------------------------|--------------------------------|
G|-7-7-7--------------------------|-4-4-4-2-2-2-2-2-2-2------------|
D|-7-7-7-5-5-5-5-5-5-5-5-5-5-5-5-5|-4-4-4-2-2-2-2-2-2-2-5-5-5-5-5-5|x4
A|-5-5-5-5-5-5-5-5-5-5-5-5-5-5-5-5|-2-2-2-0-0-0-0-0-0-0-5-5-5-5-5-5|
E|-------3-3-3-3-3-3-3-3-3-3-3-3-3|---------------------3-3-3-3-3-3|



Guitar 2 (NB - note the elongated bars)
Intro
E|---------------------------------|---------------------------------|
B|---------------------------------|---------------------------------|
G|-7-7-7-6-7/14-\11--9---11--111111|-7-7-7-6-7/14-\11--9---11--111111|
D|-0-0-0-0-0-0---0---0---0---0-0-0-|-0-0-0-0-0-0---0---0---0---0-0-0-|x2
A|---------------------------------|---------------------------------|
E|---------------------------------|---------------------------------|

E|---------------------------------|--------------------------------|
B|---------------------------------|--------------------------------|
G|-7-7-7-6-7/14-\11--9---11--111111|-7-7-7-6-7/14-\11--9-----2---2--|
D|-0-0-0-0-0-0---0---0---0---0-0-0-|-0-0-0-0-0-0---0---0-5-5---4---4|
A|---------------------------------|---------------------5-5--------|
E|---------------------------------|---------------------3-3--------|

E|---------------------------------|---------------------------------|
B|---------------------------------|---------------------------------|
G|-7-7-7-6-7/14-\11--9---11--111111|-7-7-7-6-7/14-\11--9---11--111111|
D|-0-0-0-0-0-0---0---0---0---0-0-0-|-0-0-0-0-0-0---0---0---0---0-0-0-|x2
A|---------------------------------|---------------------------------|
E|---------------------------------|---------------------------------|

E|-------------------------9---9---9---------------10--10--10------|
B|-10--10--10------------------------------------------------------|
G|-------------11--11--11--------------11--11--11--------------11--|
D|-----------------------------------------------------------------|x2
A|-----------------------------------------------------------------|
E|-----------------------------------------------------------------|
PM .   .   .   .   .   .   .   .   .   .   .   .   .   .   .   .
Verse 1
E|-------------------------9---9---9---------------10--10--10------|
B|-10--10--10------------------------------------------------------|
G|-------------11--11--11--------------11--11--11--------------11--|
D|-----------------------------------------------------------------|
A|-----------------------------------------------------------------|
E|-----------------------------------------------------------------|
               .   .   .               .   .   .   
E|-----------------------------------------------------------------|
B|-10--10--10------------------------------------------------------|
G|-------------------------11--11--11---------------9---9---9------|All
D|-------------12--12--12--------------12--12--12--------------12--|x2
A|-----------------------------------------------------------------|
E|-----------------------------------------------------------------|
               .   .   .               .   .   .   
Pre chorus 1
E|--------------------------------|--------------------------------|
B|--------------------------------|--------------------------------|
G|--------------------------------|--------------------------------|
D|--------------------------------|--------------------------------|
A|--------------------------------|--------------------------------|
E|--------------------------------|--------------------------------|

Chorus
E|---------------------------------|---------------------------------|
B|---------------------------------|---------------------------------|
G|-7-7-7-6-7/14-\11--9---11--111111|-7-7-7-6-7/14-\11--9---11--111111|
D|-0-0-0-0-0-0---0---0---0---0-0-0-|-0-0-0-0-0-0---0---0---0---0-0-0-|x4
A|---------------------------------|---------------------------------|
E|---------------------------------|---------------------------------|

Verse 2
E|--------------------------------|--------------------------------|
B|--------------------------------|--------------------------------|
G|-7-7-7-------2---2-------2---2--|-4-4-4-2-2-2-2---2-------2---2--|
D|-7-7-7-5-5-5---4---4-5-5---4---4|-4-4-4-2-2-2---4---4-5-5---4---4|x2
A|-5-5-5-5-5-5---------5-5--------|-2-2-2-0-0-0---------5-5--------|
E|-------3-3-3---------3-3--------|---------------------3-3--------|
   . . . . . .         . .          . . . . . .         . .    
E|--------------------------------|--------------------------------|
B|--------------------------------|--------------------------------|
G|-7-7-7--------------------------|-4-4-4-2-2-2-2-2-2-2------------|
D|-7-7-7-5-5-5-5-5-5-5-5-5-5-5-5-5|-4-4-4-2-2-2-2-2-2-2-5-5-5-5-5-5|x2
A|-5-5-5-5-5-5-5-5-5-5-5-5-5-5-5-5|-2-2-2-0-0-0-0-0-0-0-5-5-5-5-5-5|
E|-------3-3-3-3-3-3-3-3-3-3-3-3-3|---------------------3-3-3-3-3-3|
   . .   . . .         . .          . .   . . .         . .
Pre chorus 2
E|---------------------------------|---------------------------------|
B|---------------------------------|---------------------------------|
G|-7-7-7-6-7/14-\11--9---11--111111|-7-7-7-6-7/14-\11--9---11--111111|
D|-0-0-0-0-0-0---0---0---0---0-0-0-|-0-0-0-0-0-0---0---0---0---0-0-0-|
A|---------------------------------|---------------------------------|
E|---------------------------------|---------------------------------|
   . . . . . .   .   .   .   . . .   . . . . . .   .   .   .   . . .  
E|---------------------------------|--------------------------------|
B|---------------------------------|--------------------------------|
G|-7-7-7-6-7/14-\11--9---11--111111|-7-7-7-6-7/14-\11--9-----2---2--|
D|-0-0-0-0-0-0---0---0---0---0-0-0-|-0-0-0-0-0-0---0---0-5-5---4---4|
A|---------------------------------|---------------------5-5--------|
E|---------------------------------|---------------------3-3--------|
   . . . . . .   .   .   .   . . .   . . . . . .   .   .  
Chorus same as last

Bridge
E|----------------------------10--|
B|-10-----------------------------|
G|-----11--9------9---9---11------|
D|--------------------------------|
A|--------------------------------|
E|--------------------------------|

E|--------------------------------|--------------------------------|
B|--------------------------------|--------------------------------|
G|--------------------------------|--------------------------------|
D|--------------------------------|--------------------------------|x2
A|--------------------------------|--------------------------------|
E|--------------------------------|--------------------------------|

E|--------------------------10----|--------------------------------|
B|-10-----------------------------|-10-----------------------------|
G|------11---9----7-9-7-9-11------|------11---9----7-9-7-9-11------|
D|--------------------------------|--------------------------12----|x3
A|--------------------------------|--------------------------------|
E|--------------------------------|--------------------------------|

E|--------------------------10----|-10-----------------------------|
B|-10-----------------------------|------12---10-------------------|
G|------11---9----7-9-7-9-11------|--------------------------------|
D|--------------------------------|--------------------------------|
A|--------------------------------|--------------------------------|
E|--------------------------------|--------------------------------|

Last chorus
E|---------------------------------|---------------------------------|
B|---------------------------------|---------------------------------|
G|-7-7-7-6-7/14-\11--9---11--111111|-7-7-7-6-7/14-\11--9---11--111111|
D|-0-0-0-0-0-0---0---0---0---0-0-0-|-0-0-0-0-0-0---0---0---0---0-0-0-|x2
A|---------------------------------|---------------------------------|
E|---------------------------------|---------------------------------|

E|---------------------------------|---------------------------------|
B|---------------------------------|---------------------------------|
G|-7-7-7-6-7/14-\11--9---11--111111|-7-7-7-6-7/14-\11--9-------------|
D|-0-0-0-0-0-0---0---0---0---0-0-0-|-0-0-0-0-0-0---0---0---5---------|
A|---------------------------------|-----------------------5---------|
E|---------------------------------|-----------------------3---------|

E|---------------------------------|---------------------------------|
B|---------------------------------|---------------------------------|
G|-7-7-7-6-7/14-\11--9---11--111111|-7-7-7-6-7/14-\11--9---11--111111|
D|-0-0-0-0-0-0---0---0---0---0-0-0-|-0-0-0-0-0-0---0---0---0---0-0-0-|x3
A|---------------------------------|---------------------------------|
E|---------------------------------|---------------------------------|

E|---------------------------------|---------------------------------|
B|---------------------------------|---------------------------------|
G|-7-7-7-6-7/14-\11--9---11--111111|-7-7-7-6-7/14-\11--9-------------|
D|-0-0-0-0-0-0---0---0---0---0-0-0-|-0-0-0-0-0-0---0---0--------5-5-5|
A|---------------------------------|----------------------------5-5-5|
E|---------------------------------|----------------------------3-3-3|

-------------------------------------------------------------------------------------------------------------
6.Daughters-VintageBassline
-------------------------------------------------------------------------------------------------------------

Guitar 1: Rhythm, Standard (EADGBe)
Guitar 2: Lead, Standard (EADGBe)

NB - updated 28/06/13 - lead guitar intro riff

Guitar 1
Intro
E|--------------------------------|--------------------------------|
B|--------------------------------|--------------------------------|
G|-------------5-5-5-5-5-5-5-5-5-5|--------------------------------|
D|-5-5-5-5-5-5-5-5-5-5-5-5-5-5-5-5|-2-2-2-4-4-4-5-5-5-5-5-5-5-5-5-5|
A|-5-5-5-5-5-5-3-3-3-3-3-3-3-3-3-3|-2-2-2-4-4-4-5-5-5-5-5-5-5-5-5-5|
E|-3-3-3-3-3-3--------------------|-0-0-0-2-2-2-3-3-3-3-3-3-3-3-3-3|

E|--------------------------------|--------------------------------|
B|--------------------------------|--------------------------------|
G|-------------5-5-5-5-5-5-5-5-5-5|--------------------------------|
D|-5-5-5-5-5-5-5-5-5-5-5-5-5-5-5-5|-2-2-2-4-4-4-5------------------|
A|-5-5-5-5-5-5-3-3-3-3-3-3-3-3-3-3|-2-2-2-4-4-4-5------------------|
E|-3-3-3-3-3-3--------------------|-0-0-0-2-2-2-3------------------|

Verse
E|--------------------------------|--------------------------------|
B|--------------------------------|--------------------------------|
G|-------------5-5-5-5-5-5-5-5-5-5|-------------2-2-2-2-2-2-2-2-2-2|
D|-2-2-2-2-2-2-5-5-5-5-5-5-5-5-5-5|-5-5-5-5-5-5-2-2-2-2-2-2-2-2-2-2| x4
A|-2-2-2-2-2-2-3-3-3-3-3-3-3-3-3-3|-5-5-5-5-5-5-0-0-0-0-0-0-0-0-0-0|
E|-0-0-0-0-0-0--------------------|-3-3-3-3-3-3--------------------|

Pre-chorus
E|--------------------------------|--------------------------------|
B|--------------------------------|--------------------------------|
G|-------------5-5-5-5-5-5-5-5-5-5|--------------------------------|
D|-5-5-5-5-5-5-5-5-5-5-5-5-5-5-5-5|-2-2-2-4-4-4-5-5-5-5-5-5-5-5-5-5|
A|-5-5-5-5-5-5-3-3-3-3-3-3-3-3-3-3|-2-2-2-4-4-4-5-5-5-5-5-5-5-5-5-5|
E|-3-3-3-3-3-3--------------------|-0-0-0-2-2-2-3-3-3-3-3-3-3-3-3-3|

E|--------------------------------|--------------------------------|
B|--------------------------------|--------------------------------|
G|-------------5-5-5-5-5-5-5-5-5-5|--------------------------------|
D|-5-5-5-5-5-5-5-5-5-5-5-5-5-5-5-5|-2-2-2-4-4-4-5------------------|
A|-5-5-5-5-5-5-3-3-3-3-3-3-3-3-3-3|-2-2-2-4-4-4-5------------------|
E|-3-3-3-3-3-3--------------------|-0-0-0-2-2-2-3------------------|

Chorus
E|--------------------------------|--------------------------------|
B|--------------------------------|--------------------------------|
G|-------------5-5-5-5-5-5-5-5-5-5|-------------2-2-2-2-2-2-2-2-2-2|
D|-2-2-2-2-2-2-5-5-5-5-5-5-5-5-5-5|-5-5-5-5-5-5-2-2-2-2-2-2-2-2-2-2| x4
A|-2-2-2-2-2-2-3-3-3-3-3-3-3-3-3-3|-5-5-5-5-5-5-0-0-0-0-0-0-0-0-0-0|
E|-0-0-0-0-0-0--------------------|-3-3-3-3-3-3--------------------|

E|--------------------------------|--------------------------------|
B|--------------------------------|--------------------------------|
G|-------------5-5-5-5-5-5-5-5-5-5|--------------------------------|
D|-5-5-5-5-5-5-5-5-5-5-5-5-5-5-5-5|-2-2-2-4-4-4-5-5-5-5-5-5-5-5-5-5| x4
A|-5-5-5-5-5-5-3-3-3-3-3-3-3-3-3-3|-2-2-2-4-4-4-5-5-5-5-5-5-5-5-5-5|
E|-3-3-3-3-3-3--------------------|-0-0-0-2-2-2-3-3-3-3-3-3-3-3-3-3|

Outro
E|--------------------------------|--------------------------------|
B|--------------------------------|--------------------------------|
G|--------------------------------|--------------------------------|
D|-5-5-5-5-5-5-5-5-5-5-5-5-5-5-5-5|-4-4-4-4-4-4-4-4-4-4-4-4-4-4-4-4| x2
A|--------------------------------|--------------------------------|
E|--------------------------------|--------------------------------|
PM . . . . . . . . . . . . . . . .  . . . . . . . . . . . . . . . .

E|--------------------------------|--------------------------------|
B|--------------------------------|--------------------------------|
G|--------------------------------|-------------4-----------7------|
D|-5------------------------------|-2-----------4-----------7------| x2
A|-5------------------------------|-2-----------2-----------5------|
E|-3------------------------------|-0------------------------------|

E|--------------------------------|--------------------------------|
B|--------------------------------|--------------------------------|
G|--------------------------------|-------------4-----4-----7---7--|
D|-5-----5-----5-----5-----5---5--|-2-----2-----4-----4-----7---7--|
A|-5-----5-----5-----5-----5---5--|-2-----2-----2---2-2---2-5---5--|
E|-3---3-3---3-3---3-3---3-3---3--|-0---0-0---0--------------------|
       .     .     .     .              .     .     .     .

E|--------------------------------|--------------------------------|
B|--------------------------------|--------------------------------|
G|--------------------------------|-------4-----7------------------|
D|-5-----5-----5-----5-----5---5--|-2-----4-----7------------------|
A|-5-----5-----5-----5-----5---5--|-2-----2-----5------------------|
E|-3---3-3---3-3---3-3---3-3---3--|-0------------------------------|
       .     .     .     .              

E|--------------------------------|--------------------------------|
B|--------------------------------|--------------------------------|
G|--------------------------------|-------------4-4-4-4-4-4-7-7-7-7|
D|-5-5-5-5-5-5-5-5-5-5-5-5-5-5-5-5|-2-2-2-2-2-2-4-4-4-4-4-4-7-7-7-7| x4
A|-5-5-5-5-5-5-5-5-5-5-5-5-5-5-5-5|-2-2-2-2-2-2-2-2-2-2-2-2-5-5-5-5|
E|-3-3-3-3-3-3-3-3-3-3-3-3-3-3-3-3|-0-0-0-0-0-0--------------------|

E|--------------------------------|--------------------------------|
B|--------------------------------|--------------------------------|
G|--------------------------------|--------------------------------|
D|-5-5-5-5-5-5-5-5-5-5-5-5-5-5-5-5|-4-4-4-4-4-4-4-4-4-4-4-4-4-4-4-4| x4
A|--------------------------------|--------------------------------|
E|--------------------------------|--------------------------------|
PM . . . . . . . . . . . . . . . .  . . . . . . . . . . . . . . . .

E|--------------------------------|
B|--------------------------------|
G|--------------------------------|
D|-5------------------------------|
A|--------------------------------|
E|--------------------------------|


Guitar 2
Intro
E|-3-----7-7-7-7-7-7-7-7-7-7-7-7-7|-3------------------------------|
B|---3p0-0-0-0-0-0-0-0-0-0-0-0-0-0|---0-0-3p0-0-5/3p0-0-1p0-3p0-1p0|
G|--------------------------------|--------------------------------|
D|--------------------------------|--------------------------------|
A|--------------------------------|--------------------------------|
E|--------------------------------|--------------------------------|

E|-3-----7-7-7-7-7-7-7-7-7-7-7-7-7|-3------------------------------|
B|---3p0-0-0-0-0-0-0-0-0-0-0-0-0-0|---0-0-3p0-0-5/3----------------|
G|--------------------------------|--------------------------------|
D|--------------------------------|--------------------------------|
A|--------------------------------|--------------------------------|
E|--------------------------------|--------------------------------|

Verse
E|--------------------------------|--------------------------------|
B|--------------------------------|--------------------------------|
G|-------------5-5-5-5-5-5-5-5-5-5|-------------2-2-2-2-2-2-2-2-2-2|
D|-2-2-2-2-2-2-5-5-5-5-5-5-5-5-5-5|-5-5-5-5-5-5-2-2-2-2-2-2-2-2-2-2| x2
A|-2-2-2-2-2-2-3-3-3-3-3-3-3-3-3-3|-5-5-5-5-5-5-0-0-0-0-0-0-0-0-0-0|
E|-0-0-0-0-0-0--------------------|-3-3-3-3-3-3--------------------|

(Note elongated bar)
E|-----------------------------------------------------------------|
B|o8---8---8---10--10--10--12--12--12--12--12--12--12--12--12--12--|
G|-0---0---0---0---0---0---0---0---0---0---0---0---0---0---0---0---|
D|-----------------------------------------------------------------|
A|o----------------------------------------------------------------|
E|-----------------------------------------------------------------|

E|-----------------------------------------------------------------|
B|-8---8---8---10--10--10--15--15--15--15--15--15--15--15--15--15-o|
G|-0---0---0---0---0---0---0---0---0---0---0---0---0---0---0---0---|
D|-----------------------------------------------------------------| x2
A|----------------------------------------------------------------o|
E|-----------------------------------------------------------------|

Pre-chorus
E|--------------------------------|--------------------------------|
B|--------------------------------|--------------------------------|
G|-------------5-5-5-5-5-5-5-5-5-5|--------------------------------|
D|-5-5-5-5-5-5-5-5-5-5-5-5-5-5-5-5|-2-2-2-4-4-4-5-5-5-5-5-5-5-5-5-5|
A|-5-5-5-5-5-5-3-3-3-3-3-3-3-3-3-3|-2-2-2-4-4-4-5-5-5-5-5-5-5-5-5-5|
E|-3-3-3-3-3-3--------------------|-0-0-0-2-2-2-3-3-3-3-3-3-3-3-3-3|

E|--------------------------------|--------------------------------|
B|--------------------------------|--------------------------------|
G|-------------5-5-5-5-5-5-5-5-5-5|--------------------------------|
D|-5-5-5-5-5-5-5-5-5-5-5-5-5-5-5-5|-2-2-2-4-4-4-5------------------|
A|-5-5-5-5-5-5-3-3-3-3-3-3-3-3-3-3|-2-2-2-4-4-4-5------------------|
E|-3-3-3-3-3-3--------------------|-0-0-0-2-2-2-3------------------|

Chorus (note elongated bar)
E|-----------------------------------------------------------------|
B|o8-----------10----------12----------12--12--12--12--12--12--12--|
G|-0-----------0-----------0-----------0---0---0---0---0---0---0---|
D|-----------------------------------------------------------------|
A|o----------------------------------------------------------------|
E|-----------------------------------------------------------------|

E|-----------------------------------------------------------------|
B|-8-----------10----------15----------15--15--15--15--15--15--15-o|
G|-0-----------0-----------0-----------0---0---0---0---0---0---0---|
D|-----------------------------------------------------------------| x4
A|----------------------------------------------------------------o|
E|-----------------------------------------------------------------|

E|-3-----7-7-7-7-7-7-7-7-7-7-7-7-7|-3------------------------------|
B|---3p0-0-0-0-0-0-0-0-0-0-0-0-0-0|---0-0-3p0-0-5/3p0-0-1p0-3p0-1p0|
G|--------------------------------|--------------------------------|
D|--------------------------------|--------------------------------| x4
A|--------------------------------|--------------------------------|
E|--------------------------------|--------------------------------|

Outro
E|--------------------------------|--------------------------------|
B|-3-3-3-0-0-0-3-3-3-0-0-0-3-3-3-0|-3-3-3-0-0-0-3-3-3-0-0-0-3-3-3-0|
G|-0-0-0-0-0-0-0-0-0-0-0-0-0-0-0-0|-0-0-0-0-0-0-0-0-0-0-0-0-0-0-0-0|
D|--------------------------------|--------------------------------| x5
A|--------------------------------|--------------------------------|
E|--------------------------------|--------------------------------|

E|--------------------------------|--------------------------------|
B|-3-3-3-0-0-0-3-3-3-0-0-0-3-3-3-0|-3-----0-----3------------------|
G|-0-0-0-0-0-0-0-0-0-0-0-0-0-0-0-0|-0-----0-----0------------------|
D|--------------------------------|--------------------------------|
A|--------------------------------|--------------------------------|
E|--------------------------------|--------------------------------|

(Note elongated bar)
E|-----------------------------------------------------------------|
B|-15--15--15--12--12--12--15--15--15--12--12--12--15--15--15--12--|
G|-0---0---0---0---0---0---0---0---0---0---0---0---0---0---0---0---|
D|-----------------------------------------------------------------| x16
A|-----------------------------------------------------------------|
E|-----------------------------------------------------------------|

E|--------------------------------|
B|-15-----------------------------|
G|-0------------------------------|
D|--------------------------------|
A|--------------------------------|
E|--------------------------------|

-------------------------------------------------------------------------------------------------------------
7.Mt. Diablo-x3ricxblink182
-------------------------------------------------------------------------------------------------------------

Intro:

E|--------------------------------|
B|--------------------------------|
G|---x2-2-xx-2-2------------------|
D|---x2-2-xx-4-4-xx-2-2-xx-2-2----|
A|---x0-0-xx-0-0-xx-2-2-xx-2-2----|
E|---------------xx-0-0-xx-0-0----| x2

E|------------4p00-5p0--2p0-2p0--2h4p2p00----|
B|---5p00-2p0--------------0---0---------4---|
G|-------------------------------------------|
D|-------------------------------------------|
A|-------------------------------------------|
E|-------------------------------------------| x6


Verse:

E|----------------------------------|
B|----------------------------------|
G|--2-------------------------------|
D|--2----2--6-x6-x4-x4-4h6p4/22p1---|
A|--0-2h4-4-4-x4-x2-x2--------------|
E|----------------------------------| x4

E|--0--0-0-0----|
B|--5/12-9-7----|
G|--------------|
D|--------------|
A|--------------|
E|--------------| x2

E|--------------------------------------------------------------|
B|--------------------------------------------------------------|
G|-------------------------------------------------6------------|
D|-------------------------------------------------x-x2-x4-x6---|
A|-666-7-7777777777-2-22222222222--7--7-7777777777-4-x2-x4-x6---|
E|-444-5-5555555555-0-00000000000--4-/5-5555555555---x0-x2-x4---| x2
         **********  ************      ***********

Pre-chorus:

E|--0~~---------------------|
B|--0~~---------------------|
G|--2~~---------------------|
D|--2~~-----4-6-7~~----7x---|
A|--0~~-----4-6-7~~----7x---|
E|----------2-4-5~~----5x---|


Chorus:

E|------------------------------------------------------------|
B|------------------------------------------------------------|
G|--9-9--13-11~--9-9--13-11-13--9-9--13-11--9-9-13-14-13-11---|
D|--x-x---x--x~--x-x---x--x--x--x-x---x--x--x-x--x--x--x-x----|
A|--7-7-/11-\9~--7-7-/11-\9-11--7-7-/11-\9--7-7-11-12-11-9----|
E|------------------------------------------------------------| x2


Verse:

E|----------------------------------|
B|----------------------------------|
G|--2-------------------------------|
D|--2----2--6-x6-x4-x4-4h6p4/22p1---|
A|--0-2h4-4-4-x4-x2-x2--------------|
E|----------------------------------| x4

E|--------------------------------|
B|--------------------------------|
G|---x2-2-xx-2-2------------------|
D|---x2-2-xx-4-4-xx-2-2-xx-2-2----|
A|---x0-0-xx-0-0-xx-2-2-xx-2-2----|
E|---------------xx-0-0-xx-0-0----| x2

E|--0--0-0-0----|
B|--5/12-9-7----|
G|--------------|
D|--------------|
A|--------------|
E|--------------| x4

E|--0-0-0-0-------------------|
B|--0-0-0-0-------------------|
G|--2-2-2-2--------4-4-4--x---|
D|--2-2-2-2--2-2-2-4-4-4--x---|
A|--0-0-0-0--2-2-2-2-2-2--x---|
E|-----------0-0-0------------| x2



Pre-chorus:

E|--0~~------------------------|
B|--0~~------------------------|
G|--2~~------------------------|
D|--2~~-----4-6-7~~----7xx-77--|
A|--0~~-----4-6-7~~----7xx-77--|
E|----------2-4-5~~----5xx-55--|


Chorus:

E|------------------------------------------------------------|
B|------------------------------------------------------------|
G|--9-9--13-11~--9-9--13-11-13--9-9--13-11--9-9-13-14-13-11---|
D|--x-x---x--x~--x-x---x--x--x--x-x---x--x--x-x--x--x--x-x----|
A|--7-7-/11-\9~--7-7-/11-\9-11--7-7-/11-\9--7-7-11-12-11-9----|
E|------------------------------------------------------------| x2


Post-chorus:

E|-----------------------------|
B|-----------------------------|
G|-----------------------------|
D|---------------------222111--|
A|--0000-00000-02222-2---------|
E|-----------------------------| x2
    **** ***** ***** * ******

E|--------4h5p4p0-2p0-0-0-0--0--0---|
B|---------------0----5/7\5-/9-/7---|
G|--2-xx----------------------------|
D|--2-xx----------------------------|
A|--0-xx----------------------------|
E|----------------------------------| x3

E|--0000--0-0000-0-0000-0-0----|
B|--5555-10\9999-5/7777-9\5----|
G|-----------------------------|
D|-----------------------------|
A|-----------------------------|
E|-----------------------------|


Chorus:

E|------------------------------------------------------------|
B|------------------------------------------------------------|
G|--9-9--13-11~--9-9--13-11-13--9-9--13-11--9-9-13-14-13-11---|
D|--x-x---x--x~--x-x---x--x--x--x-x---x--x--x-x--x--x--x-x----|
A|--7-7-/11-\9~--7-7-/11-\9-11--7-7-/11-\9--7-7-11-12-11-9----|
E|------------------------------------------------------------| x4

Outro:

E|--------------------------------|
B|--------------------------------|
G|--------------------------------|
D|-------76666-24444--76666-4444--|
A|--7777--------------------------|
E|--------------------------------| x2


End on this pinch harmonic:

E|------|
B|------|
G|------|
D|--6*--|
A|------|
E|------|


-------------------------------------------------------------------------------------------------------------
8.Four Years-jstrosnider123
-------------------------------------------------------------------------------------------------------------


e|--------------------------------------------------------------------------|
B|--------------------------------------------------------------------------|
G|--------------------------------------------------------------------------|
D|--99999-7-5--55-5555-55-5555-55-5555-55-4444------------------------------|
A|--99999-7-5--55-5555-55-5555-55-5555-55-5555------------------------------|
E|--77777-5-3--33-3333-33-3333-33-3333-33-2222------------------------------|


e|--------------------------------------------------------------------------|
B|--------------------------------------------------------------------------|
G|---------------------7--77-777--------------------------------------------|
D|--99999-7-5--55-5555-7--77-777-7-77-777-----------------------------------|
A|--99999-7-5--55-5555-5--55-555-7-77-777-----------------------------------|
E|--77777-5-3--33-3333-----------5-55-555-----------------------------------|


e|--------------------------------------------------------------------------|
B|--------------------------------------------------------------------------|
G|--------------------------------------------------------------------------|
D|--99999-7-5--55-5555-55-5555-55-5555-55-4444------------------------------|
A|--99999-7-5--55-5555-55-5555-55-5555-55-5555------------------------------|
E|--77777-5-3--33-3333-33-3333-33-3333-33-2222------------------------------|


e|--------------------------------------------------------------------------|
B|--------------------------------------------------------------------------|
G|---------------------7--77-777--------------------------------------------|
D|--99999-7-5--55-5555-7--77-777-7-77-777-----------------------------------|
A|--99999-7-5--55-5555-5--55-555-7-77-777-----------------------------------|
E|--77777-5-3--33-3333-----------5-55-555-----------------------------------|


0:23 "Greater men...."

e|--------------------------------------------------------------------------|
B|--------------------------------------------------------------------------|
G|--------------------------------------------------------------------------|
D|--55-----9-9997777--------------------------------------------------------|
A|--55-----9-9997777--------------------------------------------------------|
E|--33-----7-7775555--------------------------------------------------------|
    

0:26 "All this time...."

e|--------------------------------------------------------------------------|
B|--------------------------------------------------------------------------|
G|------------77------------------------------------------------------------|
D|--55-5-555--77-9-999--77-7-777--99-4-444----------------------------------|
A|--55-5-555--55-9-999--77-7-777--99-5-555----------------------------------|
E|--33-3-333-----7-777--55-5-555--77-2-222----------------------------------|

e|--------------------------------------------------------------------------|
B|--------------------------------------------------------------------------|
G|------------77------------------------------------------------------------|
D|--55-5-555--77-9-999--77-7-777--99-4-444-5~-------------------------------|
A|--55-5-555--55-9-999--77-7-777--99-5-555-5~-------------------------------|
E|--33-3-333-----7-777--55-5-555--77-2-222-3~-------------------------------|

0:42 "Time was short...."

e|--------------------------------------------------------------------------|
B|--------------------------------------------------------------------------|
G|--------------------------------------------------------------------------|
D|--5-5-5-5-5-5-5-5-5-5-5-5-5-5-5-5-5-5-5-5-5-5-5-5-5-5-5-5-5-5-5-5---------|
A|--5-5-5-5-5-5-5-5-5-5-5-5-5-5-5-5-5-5-5-5-5-5-5-5-5-5-5-5-5-5-5-5---------|
E|--3-3-3-3-3-3-3-3-3-3-3-3-3-3-3-3-3-3-3-3-3-3-3-3-3-3-3-3-3-3-3-3---------|
    x x x x x x x x x x x x x x x x x x x x x x x x x x x x x x x x

e|--------------------------------------------------------------------------|
B|--------------------------------------------------------------------------|
G|-----7----7----7----7----7----7----7----7---------------------------------|
D|--77-7-77-7-77-7-77-7-77-7-77-7-77-7-77-7---------------------------------|
A|--55-5-55-5-55-5-55-5-55-5-55-5-55-5-55-5---------------------------------|
E|--------------------------------------------------------------------------|
    xx   xx   xx   xx   xx   xx   xx   xx 

e|--------------------------------------------------------------------------|
B|--------------------------------------------------------------------------|
G|--------------------------------------------------------------------------|
D|--5-5-5-5-5-5-5-5-5-5-5-5-5-5-5-5-5-5-5-5-5-5-5-5-5-5-5-5-5-5-5-5---------|
A|--5-5-5-5-5-5-5-5-5-5-5-5-5-5-5-5-5-5-5-5-5-5-5-5-5-5-5-5-5-5-5-5---------|
E|--3-3-3-3-3-3-3-3-3-3-3-3-3-3-3-3-3-3-3-3-3-3-3-3-3-3-3-3-3-3-3-3---------|
    x x x x x x x x x x x x x x x x x x x x x x x x x x x

0:59 "It hits home...."

e|--------------------------------------------------------------------------|
B|--------------------------------------------------------------------------|
G|-------------------------------7777--xx-----------------------------------|
D|--5555--xx--4444--xx--7777--x--5555--xx--9999--xx--7777--x----------------|
A|--5555--xx--5555--xx--7777--x--5555--xx--9999--xx--7777--x----------------|
E|--3333--xx--2222--xx--5555--x--------xx--7777--xx--5555--x----------------|


e|--------------------------------------------------------------------------|
B|--------------------------------------------------------------------------|
G|-------------------------------7777--xx-----------------------------------|
D|--5555--xx--4444--xx--7777--x--5555--xx--9999--xx--7777--x----------------|
A|--5555--xx--5555--xx--7777--x--5555--xx--9999--xx--7777--x----------------|
E|--3333--xx--2222--xx--5555--x--------xx--7777--xx--5555--x----------------|


1:10 "All this time...."

e|--------------------------------------------------------------------------|
B|--------------------------------------------------------------------------|
G|------------77------------------------------------------------------------|
D|--55-5-555--77-9-999--77-7-777--99-4-444----------------------------------|
A|--55-5-555--55-9-999--77-7-777--99-5-555----------------------------------|
E|--33-3-333-----7-777--55-5-555--77-2-222----------------------------------|

e|--------------------------------------------------------------------------|
B|--------------------------------------------------------------------------|
G|------------77------------------------------------------------------------|
D|--55-5-555--77-9-999--77-7-777--99-4-444-5~-------------------------------|
A|--55-5-555--55-9-999--77-7-777--99-5-555-5~-------------------------------|
E|--33-3-333-----7-777--55-5-555--77-2-222-3~-------------------------------|

e|--------------------------------------------------------------------------|
B|--------------------------------------------------------------------------|
G|------------77------------------------------------------------------------|
D|--55-5-555--77-9-999--77-7-777--99-4-444----------------------------------|
A|--55-5-555--55-9-999--77-7-777--99-5-555----------------------------------|
E|--33-3-333-----7-777--55-5-555--77-2-222----------------------------------|

e|--------------------------------------------------------------------------|
B|--------------------------------------------------------------------------|
G|------------77------------------------------------------------------------|
D|--55-5-555--77-9-999--77-7-777--99-4-444-5~-------------------------------|
A|--55-5-555--55-9-999--77-7-777--99-5-555-5~-------------------------------|
E|--33-3-333-----7-777--55-5-555--77-2-222-3~-------------------------------|


1:36

e|--------------------------------------------------------------------------|
B|--------------------------------------------------------------------------|
G|---0~---------------------------------------------------------------------|
D|-------4~-----------------------------------------------------------------|
A|------------5~------------------------------------------------------------|
E|--------------------------------------------------------------------------|


e|--------------------------------------------------------------------------|
B|--------------------------------------------------------------------------|
G|--------------------------------------------------------------------------|
D|--------------------------------------------------------------------------|
A|--5555---5555---777\5----5555---5555-------7------------------------------|
E|--3333---2222---555\3----3333---2222---2/5---5\3--------------------------|
    xxxx   xxxx   xxx      xxxx   xxxx

e|--------------------------------------------------------------------------|
B|--------------------------------------------------------------------------|
G|--------------------------------------------------------------------------|
D|--------------------------------------------------------------------------|
A|--5555---5555---777\5----5555---5555-------7------------------------------|
E|--3333---2222---555\3----3333---2222---2/5---5\3--------------------------|
    xxxx   xxxx   xxx      xxxx   xxxx

e|--------------------------------------------------------------------------|
B|--------------------------------------------------------------------------|
G|--------------------------------------------------------------------------|
D|--------------------------------------------------------------------------|
A|--5555---5555---777\5----5555---5555-------7------------------------------|
E|--3333---2222---555\3----3333---2222---2/5---5\3--------------------------|
    xxxx   xxxx   xxx      xxxx   xxxx

e|--------------------------------------------------------------------------|
B|--------------------------------------------------------------------------|
G|--------------------------------------------------------------------------|
D|--------------------------------------------------------------------------|
A|--5555---5555---777\5----5555---5555-------7------------------------------|
E|--3333---2222---555\3----3333---2222---2/5---5\3--------------------------|
    xxxx   xxxx   xxx       xx    xx 


2:10

e|--------------------------------------------------------------------------|
B|--------------------------------------------------------------------------|
G|----------------------7777-7----------------------------------------------|
D|--5555-5-4444-4-7777--7777-7-9999-9-7777-7--------------------------------|
A|--5555-5-5555-5-7777--5555-5-9999-9-7777-7--------------------------------|
E|--3333-3-2222-2-5555---------7777-7-5555-5--------------------------------|


e|--------------------------------------------------------------------------|
B|--------------------------------------------------------------------------|
G|----------------------7777------------------------------------------------|
D|--5555-5-4444-4-7777--7777--9999--7777--5~--------------------------------|
A|--5555-5-5555-5-7777--5555--9999--7777--5~--------------------------------|
E|--3333-3-2222-2-5555--------7777--5555--3~--------------------------------|



-------------------------------------------------------------------------------------------------------------
9.Rally Cap-x3ricxblink182
-------------------------------------------------------------------------------------------------------------

Intro:

E|-----------------------------------------------|
B|-----------------------------------------------|
G|--444--------444--------444--------------------|
D|--444-22222--444-22222--444-22222--6666-22222--|
A|--222-22222--222-22222--222-22222--6666-22222--|
E|------00000------00000------00000--4444-00000--|

Verse:

E|-----------------------------------------------|
B|-----------------------------------------------|
G|--444--------444--------444--------------------|
D|--444-22222--444-22222--444-22222--6666-22222--|
A|--222-22222--222-22222--222-22222--6666-22222--|
E|------00000------00000------00000--4444-00000--| x4


"I've got nothing in common..."

E|----------------------------------------------------------|
B|----------------------------------------------------------|
G|--11111--88888--11-8-6-6666--8--6--4-4444--8--6--4-4444---|
D|---xxxx--xxxxx---x-x-x-xxxx--x--x--x-xxxx--x--x--x-xxxx---|
A|---9999-\66666---9/6/4-4444--6-/4-/2-2222--6-/4-/2-2222---|
E|----------------------------------------------------------| x2


"I don't have any place to stay.."

E|------------------------------------------------|
B|------------------------------------------------|
G|------------------------------------------------|
D|--6-6-66~~--6-6-66~~--(4)--2-2-22~~--2-2-22~~---|
A|--6-6-66~~--6-6-66~~--(4)--2-2-22~~--2-2-22~~---|
E|--4-4-44~~--4-4-44~~--(2)--0-0-00~~--0-0-00~~---| x2

E|--------------------------------------|
B|--------------------------------------|
G|--------------------------------------|
D|--6666666666666666--222222222222222---|
A|--6666666666666666--222222222222222---|
E|--4444444444444444--000000000000000---| x2
    xxxxxxxxxxxxxxxx  xxxxxxxxxxxxxxx


Verse:

E|-----------------------------------------------|
B|-----------------------------------------------|
G|--444--------444--------444--------------------|
D|--444-22222--444-22222--444-22222--6666-22222--|
A|--222-22222--222-22222--222-22222--6666-22222--|
E|------00000------00000------00000--4444-00000--|


"I've got nothing in common..."

E|----------------------------------------------------------|
B|----------------------------------------------------------|
G|--11111--88888--11-8-6-6666--8--6--4-4444--8--6--4-4444---|
D|---xxxx--xxxxx---x-x-x-xxxx--x--x--x-xxxx--x--x--x-xxxx---|
A|---9999-\66666---9/6/4-4444--6-/4-/2-2222--6-/4-/2-2222---|
E|----------------------------------------------------------| x2


"Self medicate cause I'm sick..."

E|------------------------------------------|
B|------------------------------------------|
G|--1111--8~--11-8-6~---8--6--4~--6--6--4~--|
D|---x-x--x----x-x-x----x--x--x---x--x--x---|
A|---9-9-\6~---9/6/4~---6-/4-/2~--6-/4-/2~--|
E|------------------------------------------| x2


-------------------------------------------------------------------------------------------------------------
10.Placeholder-x3ricxblink182
-------------------------------------------------------------------------------------------------------------


Intro/Verse:

E|-------------------------------------|
B|----3-3----3----3----3-3----3----3---|
G|----2-2----2----2----2-2----2----2---|
D|-00-----44---55---22-----55---44-----|
A|-------------------------------------|
E|-------------------------------------|
                                          ( x3 )
E|-------------------------------------|
B|----3-3----3----3----3-3----3----3---|
G|----2-2----2----2----2-2----2----2---|
D|--------00---22----------------------|
A|-22----------------------------------|
E|------------------33-----33---33-----|


Chorus:

E|--x-------x-------x-------x------x-------|
B|--3-------3-------3-------3------3-------|
G|--2-(x16)-2-(x16)-2-(x16)-2-(x8)-2-(x8)--|
D|--0-------x-------0-------x------2-------|
A|--x-------2-------x-------2------0-------|
E|--3-------x-------3-------x------x-------| x2

"Have to do..."

E|--x~--|
B|--3~--|
G|--2~--|
D|--0~--|
A|--x~--|
E|--3~--|


Intro/Verse:

E|-------------------------------------|
B|----3-3----3----3----3-3----3----3---|
G|----2-2----2----2----2-2----2-22-2---|
D|-00-----44---55---22-----55----------|
A|-------------------------------------|
E|-------------------------------------|
                                           ( x3 )
E|-------------------------------------|
B|----3-3----3----3------3----3----3---|
G|----2-2----2----2------2----2----2---|
D|-44-----22---44---0-0----22---44-----|
A|-------------------------------------|
E|-------------------------------------|


Chorus:

E|--x-------x-------x-------x------x-------|
B|--3-------3-------3-------3------3-------|
G|--2-(x16)-2-(x16)-2-(x16)-2-(x8)-2-(x8)--|
D|--0-------x-------0-------x------2-------|
A|--x-------2-------x-------2------0-------|
E|--3-------x-------3-------x------x-------| x2


Bridge:

"Have to..."

E|------------9-9----------|
B|------10-7-----10-7-10---|
G|--7-7------7-------------|
D|-------------------------|
A|-------------------------|
E|-------------------------| x25

Chords behind it:

E|--x-------x-------x-------x--------|
B|--3-------3-------3-------3--------|
G|--2-(x16)-2-(x16)-2-(x16)-2-(x16)--|
D|--0-------0-------x-------2--------|
A|--x-------0-------2-------0--------|
E|--3-------x-------x-------x--------|


Outro:

E|------------9-9----------|
B|------10-7-----10-7-10---|
G|--7-7------7-------------|
D|-------------------------|
A|-------------------------|
E|-------------------------|

E|------------9-9-----------|
B|------10-7------10-7-10---|
G|--7-7------7-----------7~-|
D|--------------------------|
A|--------------------------|
E|--------------------------|

-------------------------------------------------------------------------------------------------------------
11.Closure-x3ricxblink182
-------------------------------------------------------------------------------------------------------------

Intro:

E|----------------|
B|-0--0-0-0--0-0--|
G|-4/1111-6/-8-8--|
D|----------------|
A|----------------|
E|----------------| x4

E|------------------------------------|
B|------------------------------------|
G|------8-8-------8-8-----------------|
D|-2-2--x-x--2-2--x-x--666666-444444--|
A|-2-2-/6-6--2-2-/6-6--666666-444444--|
E|-0-0-------0-0-------444444-222222--|

E|------------------------------------|
B|------------------------------------|
G|-1111--8-8-1111--8-8----------------|
D|--x-x--x-x--x-x--x-x--666666-444444-|
A|--9-9-/6-6--9-9-/6-6--666666-444444-|
E|----------------------444444-222222-| x3


Verse:
E|----------------|
B|-0--0-0-0--0-0--|
G|-4/1010-6/-8-8--|
D|--------8--9-9--|
A|----------------|
E|----------------| x4

E|------------------------------------|
B|------------------------------------|
G|------------------------------------|
D|-2-xxxx-2-2-xxxx-2-6-xxxx-6-4-xxxx--|
A|-2-xxxx-2-2-xxxx-2-6-xxxx-6-4-xxxx--|
E|-0-xxxx-0-0-xxxx-0-4-xxxx-4-2-xxxx--| x4

E|--------------------|
B|--------------------|
G|-88-88-66-66-6-44---|
D|-xx-xx-xx-xx-x-xx---|
A|-66-66-44-44-4/22---|
E|--------------------| x4

E|---------------------|
B|---------------------|
G|-88-88-1111-66-666---|
D|-xx-xx--x-x-xx-xxx---|
A|-66-66--9-9-44-444-/-|
E|---------------------| x4

E|------------------------------------|
B|------------------------------------|
G|------8-8-------8-8-----------------|
D|-2-2--x-x--2-2--x-x--666666-444444--|
A|-2-2-/6-6--2-2-/6-6--666666-444444--|
E|-0-0-------0-0-------444444-222222--|

E|-------|
B|-------|
G|-------|
D|-2~~~--|
A|-2~~~--|
E|-0~~~--|


Pre-chorus:

E|---------------------|
B|---------------------|
G|--8-8-8-8-6-6-333-4--|
D|--x-x-x-x-x-x-xxx-x--|
A|--6-6-6-6-4-4-111/2--|
E|---------------------| x4

E|----------------|
B|-0--0-0-0--0-0--|
G|-4/1010-6/-8-8--|
D|----------------|
A|----------------|
E|----------------|


Chorus:

E|----------------------------------------|
B|----------------------------------------|
G|-44444--9-888-444--66666--9-888--1111---|
D|-xxxxx--x-xxx-xxx--xxxxx--x-xxx---xxx---|
A|-22222-/7-666-222--44444-/7-666-//999---|
E|----------------------------------------| x4

E|-------|
B|-------|
G|-------|
D|-2~~~--|
A|-2~~~--|
E|-0~~~--|

E|----------|
B|----------|
G|--6-4~~~--|
D|--x-x~~~--|
A|--4\2~~~--|
E|----------|



Bridge:
E|-------------|
B|-------------|
G|-------------|
D|-222-222222--|
A|-222-222222--|
E|-000-000000--| x2

E|-------------|
B|-0-0-0-0~~---|
G|-4-6-8-4~~---|
D|-------------|
A|-------------|
E|-------------|

E|-------------|
B|-0-0-0-0~~---|
G|-4-6-3-4~~---|
D|-------------|
A|-------------|
E|-------------|

Outro:

E|----------------|
B|-0-0-0-0-0-0-0--|
G|-4-6-8-3-3-3/4--|
D|----------------|
A|----------------|
E|----------------| x14

E|-------------|
B|--0~~--0-0---|
G|--4~~--6/8---|
D|-------------|
A|-------------|
E|-------------|

End on:

E|----------|
B|--0~~~~---|
G|-11~~~~---|
D|--9~~~~---|
A|----------|
E|----------|

************************************
| /   slide up
| \   slide down
| h   hammer-on
| p   pull-off
| ~   vibrato
| +   harmonic
| x   Mute note
| b   Bend
| pb  Pre-bend
| br  Bend release
| pbr Pre-bend release
| brb Bend release bend

************************************
Добавлено: 14.12.2015
Другие материалы по этой песне:
  • Аккорды и текст

Страница создана 14.12.2015
http://primanota.ru/the-story-so-far/under-soil-and-dirt-album-chords.htm
Привет, Гость.
Предлагаем пройти революционный курс по гитаре.
Подарок от PrimaNota.Ru, забирай!