PrimaNota.ru - самый крупный в мире бесплатный архив песенных текстов, аккордов, табулатур и нот


The Story So Far - Stifled - таба, видео

Регистрация Запомнить меня
Войти через:  Facebook Google Twitter Vk Yandex Mail.ru

The Story So Far - Stifled - таба, видео

Печатать
Просмотров: 92
Уроки эстрадного вокала в Санкт-Петербурге
Stifled by The Story So Far
Half Step Down
~: Quick bends/wiggles
x: Muted
Done by ear and watching covers on youtube
Let me know if anything is off

For the rest of the songs off the album go to
http://www.youtube.com/user/PopPunkGuitarCovers
He has the songs I didn't put up tabbed and videos with them

Main Riff Rhythm
|------------------------------------------------------------|
|------------------------------------------------------------|
|------------------------------------------------------------|
|--------------------------7-7-------------------------------|
|--5--555--555-555-555-55--5-5--5--555--555-555-555-55--2-2--|
|--3--333--333-333-333-33-------3--333--333-333-333-33--0-0--|
   x  xx   xxx xx  xxx xx       x  xx   xxx xx  xxx xx

Main Riff Lead
|-----------0-----5-----2-3\2--------0-----5-----2-3\2--|
|--3h5p3-----3-----3-----3-----5p3----3-----3-----3-----|
|--------2----2-----2--------------2---2-----2----------|
|-------------------------------------------------------|
|-------------------------------------------------------|
|-------------------------------------------------------|

Chorus
Rhythm
|--------------------------------------------------------|
|--------------------------------------------------------|
|--------------------------------------------------------|
|------------------7--2----------------------------------|
|--5-5-5--5-5555-5-5--2--5--7-7-7--7-7777--7-7-7--2-2-2--|End  5
|--3-3-3--3-3333-3----0--3--5-5-5--5-5555--5-5-5--0-0-0--|with 3
            xxxx                     xxxx
Lead
|---------------------------------------------------------------------------|
|--3h5--3----------5--3--------3~----3h5--3---------------3h5--3-------3\5--|
|---------4--2~---------4--2\4--------------4--2--4--2-----------4--2-------|
|---------------------------------------------------------------------------|
|---------------------------------------------------------------------------|
|---------------------------------------------------------------------------|

Verse
|--------------------------------------------------------|
|--------------------------------------------------------|
|--------------------------------------------------------|
|-----------------------7-7------------------------------|
|--55-55-55-55-55-55-5--5-5----55-55-55-55-55-55-5--2-2--|
|--33-33-33-33-33-33-3---------33-33-33-33-33-33-3--0-0--|
      xx    xx    xx              xx    xx    xx

|-----------0-----5-----2-3\2--------0-----5-----2-3\2--|
|--3h5p3-----3-----3-----3-----5p3----3-----3-----3-----|
|--------2----2-----2--------------2---2-----2----------|
|-------------------------------------------------------|
|-------------------------------------------------------|
|-------------------------------------------------------|

Bridge
Rhythm
|-----------------|
|-----------------|
|-----------------|
|-----------7-----|
|--5----2---5--2--|
|--3----0------0--|
(At first its just one strum and holding the
 chord but as it picks up listen for the strumming)

Lead
|--0---------------------0---------|
|---3--3---3\5--5~--3~----3---3----|
|----2--2------------------2---2---|
|--------0----------------------0--|
|----------------------------------|
|----------------------------------|

Then just the Main Riff for the Outro
Добавлено: 18.07.2013
Другие материалы по этой песне:

Страница создана 18.07.2013
http://primanota.ru/the-story-so-far/stifled-chords.htm
Привет, Гость.
Предлагаем пройти революционный курс по гитаре.
Подарок от PrimaNota.Ru, забирай!