PrimaNota.ru - самый крупный в мире бесплатный архив песенных текстов, аккордов, табулатур и нот


The Story So Far - Stalemate - таба, видео

Регистрация Запомнить меня
Войти через:  Facebook Google Twitter Vk Yandex Mail.ru

The Story So Far - Stalemate - таба, видео

Печатать
Просмотров: 65
-------------------------------------------------------------------------------
                             Stalemate - The Story So Far
-------------------------------------------------------------------------------
Tabbed by: 14caiom
E-mail: 14caiom@gmail.com

Tuning:Half Step down

Lead and Rhythm.(Rhythm is tricky, i think it may be drop D and 1/2 step down, didn't 
tab it that way tho)

/////Lead///////////

Chorus:

E|------------------------------------------------------------------------------------|
B|------------------------------------------------------------------------------------|
G|-------9-6-9-6/4-4-4-------9-6-9-6/4-4-4--------------------------------------------|
D|--7777----------------7777----------------------9-6-9-6/4-4-4--------9-6-9-6/4-4-4--|
A|------------------------------------------7777-----------------6666-----------------|
E|------------------------------------------------------------------------------------|


Verse: (0:25)


E|--------------7--4---------------------5--4--|
B|--5--5--5--5---------------7--7--7--7--------|
G|---------------------------------------------|
D|---------------------------------------------|
A|---------------------------------------------|
E|---------------------------------------------|


Chorus:(0:47)

Verse (1:20)


"You want him like you wanted me, but i know that its not the same thing, covet, what you..."

E|-----0----------------0-------------0---------------0---0-x-0-0-----------0--------|
B|-----5----------------7-------------5---------------7---7-x-7-7-----------5--------|
G|-----------------------------------------------------------------------------------|
D|-----------------------------------------------------------------------------------|
A|-----------------------------------------------------------------------------------|
E|-----------------------------------------------------------------------------------|

"Cannot bring i won't calm down ill never let it be.   You want him like you wanted me"
                                                       (Probably could add high e string open)

E|-----0----------0-----------------0--------------0-----------------------------------|
B|-----7----------5-----------------7--------------5----5---9---5---7----9---7--5---2--|
D|-------------------------------------------------------------------------------------|
A|-------------------------------------------------------------------------------------|
E|-------------------------------------------------------------------------------------|

" but I know that its not the same thing, covet what you cannot bring i won't calm down"

E|-------------------------------------------------------------------------------------|
B|-5--9--5----7---9---7---5----9h10p9---(5)-9---5---7----9--7--5---2----5-9----5---7---|
G|-------------------------------------------------------------------------------------|
D|-------------------------------------------------------------------------------------|
A|-------------------------------------------------------------------------------------|
E|-------------------------------------------------------------------------------------|


     "I'll never let it be"

E|------------------------------------|
B|-----9---7--5----9h10p9-------------|
G|------------------------------------|
D|------------------------------------|
A|------------------------------------|
E|------------------------------------|

Chorus (2:10)

Outro(Strum slow)

E|-----0-------------0-------------0---------------0--------------------------------|
B|-----5-------------7-------------5---------------7--------------------------------|
G|----------------------------------------------------------------------------------|
D|----------------------------------------------------------------------------------|
A|----------------------------------------------------------------------------------|
E|----------------------------------------------------------------------------------|

//////Rhythm //////////////

Super confused with this, but theres no other tab so.


Chorus:(0:08)

E|-----------------------------------------------------------------------------------|
B|-----------------------------------------------------------------------------------|
G|-----------------------------------------------------------------------------------|
D|----7-7-7--x--7-7-7--x----2-2-2-x-2-2-2--x-----------------------------------------|
A|----7-7-7--x--7-7-7--x----2-2-2-x-2-2-2--x-----------------------------------------|
E|----5-5-5--x--5-5-5--x----0-0-0-x-0-0-0--x-----------------------------------------|


Verse:

   "Hard to clench my fist well with all the things i should tell"

E|------------------------------------------------------------------|
B|------------------------------------------------------------------|
G|------------------------------------------------------------------|
D|-----7--x--7-----x--7-7----2--x----4----x--4-----x---4--4---------|
A|-----7--x--7-----x--7-7----2--x----4----x--4-----x---4--4---------|
E|-----5--x--5-----x--5-5----0--x----2----x--2-----x---2--2---------|

Alternate (better) Verse:

E|-----------------------------------------------------------------------------------------------|
B|-----------------------------------------------------------------------------------------------|
G|-----------------------------------------------------------------------------------------------|
D|---2--x--2--x--9--7-----------4--x--4--x--7--6-------------------------------------------------|
A|---2--x--2--x--9--7-----------4--x--4--x--7--6-------------------------------------------------|
E|---0--x--0--x--7--5-----------2--x--2--x--5--4-------------------------------------------------|


Bridge:(1:40){Don't strum its just one chord for most part}

" You want him like you wanted me but i know that its not the same thing, covet what you cannot

E|-----------------------------------------------------------------------------------------------|
B|-----------------------------------------------------------------------------------------------|
G|-----------------------------------------------------------------------------------------------|
D|-----7----------------4-------------7----------------4-------------------7--------------4------|
A|-----7----------------4-------------7----------------4-------------------7--------------4------|
E|-----5----------------2-------------5----------------2-------------------5--------------2------|


" Bring I won't calm down i'll never let it be. You want him like you wanted me, (Continue pattern)

E|-----------------------------------------------------------------------------------------------|
B|-----------------------------------------------------------------------------------------------|
G|-----------------------------------------------------------------------------------------------|
D|---------7--------------------4-------------------7-x-7-x---7--7----4-x-4-x--4-4---------------|
A|---------7--------------------4-------------------7-x-7-x---7--7----4-x-4-x--4-4---------------|
E|---------5--------------------2-------------------5-x-5-x---5--5----2-x-2-x--2-2---------------|

Chorus(These Two Chords i think)

E|-----------------|
B|-----------------|
G|-----------------|
D|-----7-----2-----|
A|-----7-----2-----|
E|-----5-----0-----|


Verse and bridge i think i got but I'm not sure on the rest for rhythm  so anything to 
add please comment.
Just follow the same notes as lead that might help.


************************************

| /   slide up
| \   slide down
| h   hammer-on
| p   pull-off
| ~   vibrato
| +   harmonic
| x   Mute note
| b   Bend


************************************
Добавлено: 10.05.2016
Другие материалы по этой песне:
  • Аккорды и текст

Страница создана 10.05.2016
http://primanota.ru/the-story-so-far/stalemate-chords.htm
Привет, Гость.
Предлагаем пройти революционный курс по гитаре.
Подарок от PrimaNota.Ru, забирай!