PrimaNota.ru - самый крупный в мире бесплатный архив песенных текстов, аккордов, табулатур и нот


The Story So Far - Solo - таба, видео

Регистрация Запомнить меня
Войти через:  Facebook Google Twitter Vk Yandex Mail.ru

The Story So Far - Solo - таба, видео

Печатать
Просмотров: 27
-------------------------------------------------------------------------------
                             Solo - The Story So Far
-------------------------------------------------------------------------------
Tabbed by: 14caiom
E-mail: 14caiom@gmail.com

Tuning:1/2 step down

Lead Guitar FIRST, Rhythm second


/////////////////////Lead Guitar://////////////////HALF STEP DOWN

intro:
(0:25) "VOID"                                     (0:43) Transition

E|-----------|---------------------5-------|------------------|
B|----1/3--33|3--5--7--5--3--(0)-------x8--|-----3--5--7------|
G|-----------|-----------------------------|------------------|
D|-----------|-----------------------------|------------------|
A|-----------|-----------------------------|------------------|
E|-----------|-----------------------------|------------------|

Verse:
(0:44)

"Call.. and we can hash it out, i could tell you what i'm so mad about"(5/7 when he says "about")

E|-----2-----2--5--2-----5--2------------|
B|--------3--------------------3--5/7--7-| x4
G|--0-----------------0------------------|
D|---------------------------------------|
A|---------------------------------------|
E|---------------------------------------|

Chorus:
(1:02)
"Sick of feeling that i'm late, tired of having to restate"
"Now look who can't hold their weight,i hope i'm wrong just for your sake"

E|-----5--7--5----------5--7--5------|
B|--(3)----------7--(3)----------7---|
G|-----------------------------------|
D|-----------------------------------|
A|-----------------------------------|
E|-----------------------------------|

"Can't just sit around and wait, your just not someone i can date"
Using pills and flowers to sedate, find me heal me keep my faith"

E|--------------------5-------------------|
B|--3--7--3--55--33--------3--5--7--3-----|
G|--------------------------------------x-|2(Whole Chorus/past two sections)
D|----------------------------------------|
A|----------------------------------------|
E|----------------------------------------|

After Chorus thingy (1:23)

E|--------|
B|--0--3--|
G|--------|
D|--------|
A|--------|
E|--------|

 Intro again (1:28)

Chorus(1:47)    x3 this time


////////////////////Rhythm Guitar:///////////////////////////////////////////////HALF STEP DOWN


Intro (version 1)

E|------------------------------|
B|------------------------------|
G|---------7--------------------|     (Play until first chorus)
D|--5------7--x3---5------------|
A|--5-x7---5-------5-x5---2--0--|
E|--3--------------3------0--2--|


Intro (version 2)

E|------------------------------|
B|------------------------------|
G|------------------------------|
D|--5----0----5----2----4-------|
A|--5----5----5----2----4-------|
E|--3----2----3----0----2-------|

Intro(Version 3)probably MOST ACCURATE because i looked up a bunch of videos of them playing this song and got this.

E|--------------------------------|
B|--------------------------------|
G|--------------------------------|
D|--5-------4-------5-------------|
A|--5-------5-------5-----5----5--|
E|--3-------5-------3-----0----2--|


Chorus (1:02)

(Chords by themselves are alternate strumming until next chord)(Capitalized words are when to change chords)

"Sick OF Feeling that I'm late, tired of having to RESTATE,Cant just sit around and WAIT

E|---------------------------------------------------------------------------------------|
B|---------------------------------------------------------------------------------------|
G|--------------------------------------------------------7------------------------------|
D|--4--4--4-----------------5--5--5-----------------------7---------------------------2--|
A|--4--4--4-----------------5--5--5-----------------------5---------------------------2--|
E|--2--2--2-----------------3--3--3---------------------------------------------------0--|
   (S)(of) (Feel)        (Late)(Tired)(OF)(not excact listen to song)

"Your just not someone i can DATE, now look who can't hold their WEIGHT, I hope i'm wrong..

E|-------------------------------------------------------------------------------|
B|-------------------------------------------------------------------------------|
G|-------------------------------------------------------------------------------|
D|-----------------------------4------------------------------------5------------|
A|-----------------------------4------------------------------------5------------|
E|-----------------------------2------------------------------------3------------|

"..Just for your SAKE, using pills and flowers to SEDATE, find me heal me keep my


E|--------------------------------------------------------------------|
B|--------------------------------------------------------------------|
G|-----------------7--------------------------------------------------|
D|-----------------7--------------------------------2-----------------|
A|-----------------5--------------------------------2-----------------|
E|--------------------------------------------------0-----------------|


Verse (1:20)

"Faith"

E|----------------------------------------------------------------------------------------------------------|
B|----------------------------------------------------------------------------------------------------------|
G|----------------------------------------------------------------------------------------------------------|
D|--5-x-5-x-5----7-x-7-x-7----5-x-5-x-5----2-2-2-2---4-4-4-4------------(repeat until second chorus)--------|
A|--5-x-5-x-5----7-x-7-x-7----5-x-5-x-5----2-2-2-2---4-4-4-4---------(the second time you do this you skip--|
E|--3-x-3-x-3----5-x-5-x-5----3-x-3-x-3----0-0-0-0---2-2-2-2----------------the muted notes, at (1:27)------|
pm                                         . . . .   . . . .


Chorus(1:47)


repeat chorus rhythm until about 2:12

then

play around with these like twice, little OUTRO:(2:13)

E|---------|
B|---------|
G|---------|
D|----4-5--|
A|----4-5--|
E|----2-3--|

At 2:18 it sounds like the low e string in drop D AND 1/2 step down, let me know ur thoughts on this, it
could be the bass is drop D, but i can't get that sound at that time unless its drop D on my guitar which
I'm not playing it at.

Let me know if there are any mistakes, its not perfectly accurate so i can add alternate versions if you got
 something good to add.

HALF STEP DOWN

() means light note that you may not particularly have to play.
************************************

| /   slide up
| \   slide down
| h   hammer-on
| p   pull-off
| ~   vibrato
| +   harmonic
| x   Mute note
| b   Bend
| pb  Pre-bend
| br  Bend release
| pbr Pre-bend release
| brb Bend release bend

************************************
Добавлено: 10.05.2016
Вам также может быть интересно:
Другие материалы по этой песне:
  • Аккорды и текст

Страница создана 10.05.2016
http://primanota.ru/the-story-so-far/solo-chords.htm
Привет, Гость.
Предлагаем пройти революционный курс по гитаре.
Подарок от PrimaNota.Ru, забирай!