PrimaNota.ru - самый крупный в мире бесплатный архив песенных текстов, аккордов, табулатур и нот


The Story So Far - Navy Blue - таба, видео

Регистрация Запомнить меня
Войти через:  Facebook Google Twitter Vk Yandex Mail.ru

The Story So Far - Navy Blue - таба, видео

Печатать
Просмотров: 716
Новый альбом группы 'Черный Кузнец' по культовому сериалу 'Сверхъестественное'!
Artist: The Story So Far
Album: Songs Of [EP]
Track: Navy Blue
Tuning: FACGCe 
From standard EADGBe - E up half step to F, A, D down whole step to C, G, B up half step to C, e.
If you do not want to tune some strings up then you could tune to EAbBGbBeb (EG#BF#BD#) and capo 1.

Intro/verse
e|-0-------3---0-------3--|-0-------3---0-----1p0--|
C|-0---0-----0-0---0-----0|-0---0-----0-0---0-----0|
G|---0---0-------0---0----|---0---0-------0--------|
C|------------------------|-------------2----------|
A|-------------0----------|-3----------------------|
F|-2----------------------|------------------------|

e|-3/5-----3---5-------3--|-5-------3---5-------3--|
C|-0---0-----0-0---0-----0|-0---0-----0-0---0-----0|
G|---0---0-------0---0----|---0---0-------0---0----|
C|------------------------|------------------------| x4
A|------------------------|------------------------|
F|-0-----------0----------|-0-----------0----------|

Chorus
e|-3-------3---1-------0--|-5-------3--------------|
C|-0---0-----0-0---0-----0|-0---0-----0---------2--|
G|---2---2-------2---2----|---0---0---------0-----0|
C|-2-----------2----------|-5-------------0---0----|
A|------------------------|-------------0----------|
F|------------------------|------------------------|

e|---------3-----------0--|---------------------3--|
C|-----0-----0-----0-----0|---------2-------2------|
G|---2---2-------2---2----|-----0-----0-------0----|
C|-2-----------2----------|---0---0-------0-------0| x2
A|------------------------|-0-----------0----------|
F|------------------------|------------------------|

Post-chorus
e|-3/5-----3---5-------3--|-5-------3---5-------0--|
C|-0---0-----0-0---0-----0|-0---0-----0-0---0---7--|
G|---0---0-------0---0----|---0---0-------0---0-0--|
C|------------------------|------------------------|
A|------------------------|------------------------|
F|-0-----------0----------|-0-----------0----------|

Repeat all sections
Добавлено: 04.06.2014
Другие материалы по этой песне:

Страница создана 08.05.2014
http://primanota.ru/the-story-so-far/navy-blue-chords.htm
Привет, Гость.
Предлагаем пройти революционный курс по гитаре.
Подарок от PrimaNota.Ru, забирай!