PrimaNota.ru - самый крупный в мире бесплатный архив песенных текстов, аккордов, табулатур и нот


The Story So Far - Mt Diablo - таба, видео

Регистрация Запомнить меня
Войти через:  Facebook Google Twitter Vk Yandex Mail.ru

The Story So Far - Mt Diablo - таба, видео

Печатать
Просмотров: 251
Уроки эстрадного вокала в Санкт-Петербурге
Авторы: The Story So Far

-----------------------------------------------------------------------------
                        Mt. Diablo – The Story So Far
-----------------------------------------------------------------------------

Tabbed by: x3ricxblink182

Email: x3ricxblink182@aim.com

Tuning: Standard



(Note rings out from ‘Brevity')


Intro:

E|--------------------------------|
B|--------------------------------|
G|---x2-2-xx-2-2------------------|
D|---x2-2-xx-4-4-xx-2-2-xx-2-2----|
A|---x0-0-xx-0-0-xx-2-2-xx-2-2----|
E|---------------xx-0-0-xx-0-0----| x2

E|------------4p00-5p0--2p0—2p0--2h4p2p00----|
B|---5p00-2p0--------------0---0---------4---|
G|-------------------------------------------|
D|-------------------------------------------|
A|-------------------------------------------|
E|-------------------------------------------| x6


Verse:

E|----------------------------------|
B|----------------------------------|
G|--2-------------------------------|
D|--2----2--6-x6-x4-x4-4h6p4/22p1---|
A|--0-2h4-4-4-x4-x2-x2--------------|
E|----------------------------------| x4

E|--0--0-0-0----|
B|--5/12-9-7----|
G|--------------|
D|--------------|
A|--------------|
E|--------------| x2

E|--------------------------------------------------------------|
B|--------------------------------------------------------------|
G|-------------------------------------------------6------------|
D|-------------------------------------------------x-x2-x4-x6---|
A|-666-7-7777777777-2-22222222222--7--7-7777777777-4-x2-x4-x6---|
E|-444-5-5555555555-0-00000000000--4-/5-5555555555---x0-x2-x4---| x2
         **********  ************      ***********

Pre-chorus:

E|--0~~---------------------|
B|--0~~---------------------|
G|--2~~---------------------|
D|--2~~-----4-6-7~~----7x---|
A|--0~~-----4-6-7~~----7x---|
E|----------2-4-5~~----5x---|


Chorus:

E|------------------------------------------------------------|
B|------------------------------------------------------------|
G|--9-9--13-11~--9-9--13-11-13--9-9--13-11--9-9-13-14-13-11---|
D|--x-x---x--x~--x-x---x--x--x--x-x---x--x--x-x--x--x--x-x----|
A|--7-7-/11-\9~--7-7-/11-\9-11--7-7-/11-\9--7-7-11-12-11-9----|
E|------------------------------------------------------------| x2


Verse:

E|----------------------------------|
B|----------------------------------|
G|--2-------------------------------|
D|--2----2--6-x6-x4-x4-4h6p4/22p1---|
A|--0-2h4-4-4-x4-x2-x2--------------|
E|----------------------------------| x4

E|--------------------------------|
B|--------------------------------|
G|---x2-2-xx-2-2------------------|
D|---x2-2-xx-4-4-xx-2-2-xx-2-2----|
A|---x0-0-xx-0-0-xx-2-2-xx-2-2----|
E|---------------xx-0-0-xx-0-0----| x2

E|--0--0-0-0----|
B|--5/12-9-7----|
G|--------------|
D|--------------|
A|--------------|
E|--------------| x4

E|--0-0-0-0-------------------|
B|--0-0-0-0-------------------|
G|--2-2-2-2--------4-4-4--x---|
D|--2-2-2-2--2-2-2-4-4-4--x---|
A|--0-0-0-0--2-2-2-2-2-2--x---|
E|-----------0-0-0------------| x2



Pre-chorus:

E|--0~~------------------------|
B|--0~~------------------------|
G|--2~~------------------------|
D|--2~~-----4-6-7~~----7xx-77--|
A|--0~~-----4-6-7~~----7xx-77--|
E|----------2-4-5~~----5xx-55--|


Chorus:

E|------------------------------------------------------------|
B|------------------------------------------------------------|
G|--9-9--13-11~--9-9--13-11-13--9-9--13-11--9-9-13-14-13-11---|
D|--x-x---x--x~--x-x---x--x--x--x-x---x--x--x-x--x--x--x-x----|
A|--7-7-/11-\9~--7-7-/11-\9-11--7-7-/11-\9--7-7-11-12-11-9----|
E|------------------------------------------------------------| x2


Post-chorus:

E|-----------------------------|
B|-----------------------------|
G|-----------------------------|
D|---------------------222111--|
A|--0000-00000-02222-2---------|
E|-----------------------------| x2
    **** ***** ***** * ******

E|--------4h5p4p0-2p0-0-0-0--0--0---|
B|---------------0----5/7\5-/9-/7---|
G|--2-xx----------------------------|
D|--2-xx----------------------------|
A|--0-xx----------------------------|
E|----------------------------------| x3

E|--0000--0-0000-0-0000-0-0----|
B|--5555-10\9999-5/7777—9\5----|
G|-----------------------------|
D|-----------------------------|
A|-----------------------------|
E|-----------------------------|


Chorus:

E|------------------------------------------------------------|
B|------------------------------------------------------------|
G|--9-9--13-11~--9-9--13-11-13--9-9--13-11--9-9-13-14-13-11---|
D|--x-x---x--x~--x-x---x--x--x--x-x---x--x--x-x--x--x--x-x----|
A|--7-7-/11-\9~--7-7-/11-\9-11--7-7-/11-\9--7-7-11-12-11-9----|
E|------------------------------------------------------------| x4

Outro:

E|--------------------------------|
B|--------------------------------|
G|--------------------------------|
D|-------76666-24444--76666-4444--|
A|--7777--------------------------|
E|--------------------------------| x2


End on this pinch harmonic:

E|------|
B|------|
G|------|
D|--6*--|
A|------|
E|------|

************************************
Добавлено: 06.06.2012
Другие материалы по этой песне:

Страница создана 06.06.2012
http://primanota.ru/the-story-so-far/mt-diablo-chords.htm
Привет, Гость.
Предлагаем пройти революционный курс по гитаре.
Подарок от PrimaNota.Ru, забирай!