PrimaNota.ru - самый крупный в мире бесплатный архив песенных текстов, аккордов, табулатур и нот


The Story So Far - High Regard - таба, бас-таба, драм-таба, видео

Регистрация Запомнить меня
Войти через:  Facebook Google Twitter Vk Yandex Mail.ru

The Story So Far - High Regard - таба, бас-таба, драм-таба, видео

Печатать
Просмотров: 132
Уроки эстрадного вокала в Санкт-Петербурге
Авторы: The Story So Far

Artist: The Story So Far
Album: Under Soil and Dirt
Track: High Regard
Guitar 1: Rhythm, Standard (EADGBe)
Guitar 2: Lead, Standard (EADGBe)

Guitar 1
Intro
E|--------------------------------|--------------------------------|
B|--------------------------------|--------------------------------|
G|--------------------------------|--------------------------------|
D|--------------------------------|--------------------------------|
A|--------------------------------|--------------------------------|
E|--------------------------------|--------------------------------|

E|--------------------------------|--------------------------------|
B|--------------------------------|--------------------------------|
G|-7-7-7-------2---2-------2---2--|-4-4-4-2-2-2-2---2-------2---2--|
D|-7-7-7-5-5-5---4---4-5-5---4---4|-4-4-4-2-2-2---4---4-5-5---4---4|
A|-5-5-5-5-5-5---------5-5--------|-2-2-2-0-0-0---------5-5--------|
E|-------3-3-3---------3-3--------|---------------------3-3--------|
PM . . . . . . . . . . . . . . . .  . . . . . . . . . . . . . . . .
E|--------------------------------|--------------------------------|
B|--------------------------------|--------------------------------|
G|-7-7-7-------2---2-------2---2--|-4-4-4-2-2-2-2---2-------2---2--|
D|-7-7-7-5-5-5---4---4-5-5---4---4|-4-4-4-2-2-2---4---4-5-5---4---4|
A|-5-5-5-5-5-5---------5-5--------|-2-2-2-0-0-0---------5-5--------|
E|-------3-3-3---------3-3--------|---------------------3-3--------|
   . . . . . . . . . . . . . . . .  . . . . . . . . . .
E|--------------------------------|--------------------------------|
B|--------------------------------|--------------------------------|
G|-7-7-7--------------------------|-4-4-4-2-2-2-2-2-2-2------------|
D|-7-7-7-5-5-5-5-5-5-5-5-5-5-5-5-5|-4-4-4-2-2-2-2-2-2-2-5-5-5-5-5-5|x2
A|-5-5-5-5-5-5-5-5-5-5-5-5-5-5-5-5|-2-2-2-0-0-0-0-0-0-0-5-5-5-5-5-5|
E|-------3-3-3-3-3-3-3-3-3-3-3-3-3|---------------------3-3-3-3-3-3|

E|--------------------------------|--------------------------------|
B|--------------------------------|--------------------------------|
G|--------------------------------|--------------------------------|
D|--------------------------------|--------------------------------|
A|-5-5-5-5-5-5-5-5-5-5-5-5-5-5-5-5|-5-5-5-5-5-5-5-5-5-5-5-5-5-5-5-5|
E|--------------------------------|--------------------------------|
   . . . . . . . . . . . . . . . .  gradually release
Verse 1
E|--------------------------------|--------------------------------|
B|--------------------------------|--------------------------------|
G|---------------2-2-------4-4-4--|---------------4-4-------2-2-2--|
D|-5-5-----------2-2-------4-4-4-5|-5-5-----------4-4-------2-2-2-5|x4
A|-5-5-----------0-0-------2-2-2-5|-5-5-----------2-2-------0-0-0-5|
E|-3-3---------------------------3|-3-3---------------------------3|

Pre chorus 1
E|--------------------------------|--------------------------------|
B|--------------------------------|--------------------------------|
G|-7-------2------2---2-2-2-------|-4---2---2-----2---2-2-2--------|
D|-7---5---2------2---2-2-2-------|-4---2---2-----2---2-2-2--------|
A|-5---5---0------0---0-0-0-------|-2---0---0-----0---0-0-0--------|
E|-----3--------------------------|--------------------------------|

Chorus
E|--------------------------------|--------------------------------|
B|--------------------------------|--------------------------------|
G|-7-7-7--------------------------|-4-4-4-2-2-2-2-2-2-2------------|
D|-7-7-7-5-5-5-5-5-5-5-5-5-5-5-5-5|-4-4-4-2-2-2-2-2-2-2-5-5-5-5-5-5|x4
A|-5-5-5-5-5-5-5-5-5-5-5-5-5-5-5-5|-2-2-2-0-0-0-0-0-0-0-5-5-5-5-5-5|
E|-------3-3-3-3-3-3-3-3-3-3-3-3-3|---------------------3-3-3-3-3-3|

Verse 2
E|--------------------------------|--------------------------------|
B|--------------------------------|--------------------------------|
G|-7-7-7-------2---2-------2---2--|-4-4-4-2-2-2-2---2-------2---2--|
D|-7-7-7-5-5-5---4---4-5-5---4---4|-4-4-4-2-2-2---4---4-5-5---4---4|x2
A|-5-5-5-5-5-5---------5-5--------|-2-2-2-0-0-0---------5-5--------|
E|-------3-3-3---------3-3--------|---------------------3-3--------|
PM . . . . . .         . .          . . . . . .         . .    
E|--------------------------------|--------------------------------|
B|--------------------------------|--------------------------------|
G|-7-7-7--------------------------|-4-4-4-2-2-2-2-2-2-2------------|
D|-7-7-7-5-5-5-5-5-5-5-5-5-5-5-5-5|-4-4-4-2-2-2-2-2-2-2-5-5-5-5-5-5|x2
A|-5-5-5-5-5-5-5-5-5-5-5-5-5-5-5-5|-2-2-2-0-0-0-0-0-0-0-5-5-5-5-5-5|
E|-------3-3-3-3-3-3-3-3-3-3-3-3-3|---------------------3-3-3-3-3-3|
   . .   . . .         . .          . .   . . .         . .
Pre chorus 2
E|--------------------------------|--------------------------------|
B|--------------------------------|--------------------------------|
G|--------------------------------|--------------------------------|
D|--------------------------------|--------------------------------|
A|-5-5-5-5-5-5-5-5-5-5-5-5-5-5-5-5|-5-5-5-5-5-5-5-5-5-5-5-5-5-5-5-5|
E|--------------------------------|--------------------------------|
   . . . . . . . . . . . . . . . .  . . . . . . . . . . . . . . . .
E|--------------------------------|--------------------------------|
B|--------------------------------|--------------------------------|
G|--------------------------------|-------------------------2---2--|
D|--------------------------------|---------------------5-5---4---4|
A|-5-5-5-5-5-5-5-5-5-5-5-5-5-5-5-5|-5-5-5-5-5-5-5-5-5-5-5-5--------|
E|--------------------------------|---------------------3-3--------|
   . . . . . . . . . . . . . . . .  . . . . . . . . . . 
Chorus same as last

Bridge
E|--------------------------------|
B|--------------------------------|
G|-7---4---2----------------------|
D|-7---4---2----------------------|
A|-5---2---0----------------------|
E|--------------------------------|

E|--------------------------------|--------------------------------|
B|--------------------------------|--------------------------------|
G|-7---4---2----------------------|---------2----------------------|
D|-7---4---2----------------------|-5---5---2----------------------|x6
A|-5---2---0----------------------|-5---5---0----------------------|
E|--------------------------------|-3---3--------------------------|
On last repeat palm mute last 3 power chords

Last chorus
E|--------------------------------|
B|--------------------------------|
G|--------------------------------|
D|--------------------------------|x3 
A|--------------------------------|
E|--------------------------------|

E|--------------------------------|
B|--------------------------------|
G|--------------------------------|
D|----------------------------5---|
A|----------------------------5---|
E|----------------------------3---|

E|--------------------------------|--------------------------------|
B|--------------------------------|--------------------------------|
G|-7-7-7--------------------------|-4-4-4-2-2-2-2-2-2-2------------|
D|-7-7-7-5-5-5-5-5-5-5-5-5-5-5-5-5|-4-4-4-2-2-2-2-2-2-2-5-5-5-5-5-5|x4
A|-5-5-5-5-5-5-5-5-5-5-5-5-5-5-5-5|-2-2-2-0-0-0-0-0-0-0-5-5-5-5-5-5|
E|-------3-3-3-3-3-3-3-3-3-3-3-3-3|---------------------3-3-3-3-3-3|



Guitar 2 (NB – note the elongated bars)
Intro
E|--------------------------------|--------------------------------|
B|-3-3-3-2-3/10-\7---5---7---7-7-7|-3-3-3-2-3/10-\7---5---7---7-7-7|
G|--------------------------------|--------------------------------|
D|--------------------------------|--------------------------------|x2
A|--------------------------------|--------------------------------|
E|--------------------------------|--------------------------------|

E|--------------------------------|--------------------------------|
B|-3-3-3-2-3/10-\7---5---7---7-7-7|-3-3-3-2-3/10-\7---5------------|
G|--------------------------------|-------------------------2---2--|
D|--------------------------------|---------------------5-5---4---4|
A|--------------------------------|---------------------5-5--------|
E|--------------------------------|---------------------3-3--------|

E|--------------------------------|--------------------------------|
B|-3-3-3-2-3/10-\7---5---7---7-7-7|-3-3-3-2-3/10-\7---5---7---7-7-7|
G|--------------------------------|--------------------------------|
D|--------------------------------|--------------------------------|x2
A|--------------------------------|--------------------------------|
E|--------------------------------|--------------------------------|

E|-------------------------9---9---9---------------10--10--10------|
B|-10--10--10------------------------------------------------------|
G|-------------11--11--11--------------11--11--11--------------11--|
D|-----------------------------------------------------------------|x2
A|-----------------------------------------------------------------|
E|-----------------------------------------------------------------|
   .   .   .   .   .   .   .   .   .   .   .   .   .   .   .   .
Verse 1
E|-------------------------9---9---9---------------10--10--10------|
B|-10--10--10------------------------------------------------------|
G|-------------11--11--11--------------11--11--11--------------11--|
D|-----------------------------------------------------------------|
A|-----------------------------------------------------------------|
E|-----------------------------------------------------------------|
               .   .   .               .   .   .   
E|-----------------------------------------------------------------|
B|-10--10--10------------------------------------------------------|
G|-------------11--11--11--9---9---9---------------9---9---9-------|All
D|-------------------------------------12--12--12--------------12--|x2
A|-----------------------------------------------------------------|
E|-----------------------------------------------------------------|
               .   .   .               .   .   .   
Pre chorus 1
E|--------------------------------|--------------------------------|
B|--------------------------------|--------------------------------|
G|--------------------------------|--------------------------------|
D|--------------------------------|--------------------------------|
A|--------------------------------|--------------------------------|
E|--------------------------------|--------------------------------|

Chorus
E|--------------------------------|--------------------------------|
B|-3-3-3-2-3/10-\7---5---7---7-7-7|-3-3-3-2-3/10-\7---5---7---7-7-7|
G|--------------------------------|--------------------------------|
D|--------------------------------|--------------------------------|x4
A|--------------------------------|--------------------------------|
E|--------------------------------|--------------------------------|

Verse 2
E|--------------------------------|--------------------------------|
B|--------------------------------|--------------------------------|
G|-7-7-7-------2---2-------2---2--|-4-4-4-2-2-2-2---2-------2---2--|
D|-7-7-7-5-5-5---4---4-5-5---4---4|-4-4-4-2-2-2---4---4-5-5---4---4|x2
A|-5-5-5-5-5-5---------5-5--------|-2-2-2-0-0-0---------5-5--------|
E|-------3-3-3---------3-3--------|---------------------3-3--------|
PM . . . . . .         . .          . . . . . .         . .    
E|--------------------------------|--------------------------------|
B|--------------------------------|--------------------------------|
G|-7-7-7--------------------------|-4-4-4-2-2-2-2-2-2-2------------|
D|-7-7-7-5-5-5-5-5-5-5-5-5-5-5-5-5|-4-4-4-2-2-2-2-2-2-2-5-5-5-5-5-5|x2
A|-5-5-5-5-5-5-5-5-5-5-5-5-5-5-5-5|-2-2-2-0-0-0-0-0-0-0-5-5-5-5-5-5|
E|-------3-3-3-3-3-3-3-3-3-3-3-3-3|---------------------3-3-3-3-3-3|
   . .   . . .         . .          . .   . . .         . .
Pre chorus 2
E|--------------------------------|--------------------------------|
B|--------------------------------|--------------------------------|
G|-7-7-7-------2---2-------2---2--|-4-4-4-2-2-2-2---2-------2---2--|
D|-7-7-7-5-5-5---4---4-5-5---4---4|-4-4-4-2-2-2---4---4-5-5---4---4|
A|-5-5-5-5-5-5---------5-5--------|-2-2-2-0-0-0---------5-5--------|
E|-------3-3-3---------3-3--------|---------------------3-3--------|
PM . . . . . . . . . . . . . . . .  . . . . . . . . . . . . . . . .
E|--------------------------------|--------------------------------|
B|--------------------------------|--------------------------------|
G|-7-7-7-------2---2-------2---2--|-4-4-4-2-2-2-2---2-------2---2--|
D|-7-7-7-5-5-5---4---4-5-5---4---4|-4-4-4-2-2-2---4---4-5-5---4---4|
A|-5-5-5-5-5-5---------5-5--------|-2-2-2-0-0-0---------5-5--------|
E|-------3-3-3---------3-3--------|---------------------3-3--------|
PM . . . . . . . . . . . . . . . .  . . . . . . . . . . 
Chorus same as last

Bridge
E|----------------------------10--|
B|-10-----------------------------|
G|-----11--9------9---9---11------|
D|--------------------------------|
A|--------------------------------|
E|--------------------------------|

E|--------------------------------|--------------------------------|
B|--------------------------------|--------------------------------|
G|--------------------------------|--------------------------------|
D|--------------------------------|--------------------------------|x2
A|--------------------------------|--------------------------------|
E|--------------------------------|--------------------------------|

E|----------------------------10--|--------------------------------|
B|-10-----------------------------|-10-----------------------------|
G|-----11--9------9---9---11------|-----11--9------9---9---11------|
D|--------------------------------|----------------------------12--|x3
A|--------------------------------|--------------------------------|
E|--------------------------------|--------------------------------|

E|----------------------------10--|-10-----------------------------|
B|-10-----------------------------|-----12--10---------------------|
G|-----11--9------9---9---11------|--------------------------------|
D|--------------------------------|--------------------------------|
A|--------------------------------|--------------------------------|
E|--------------------------------|--------------------------------|

Last chorus
E|--------------------------------|--------------------------------|
B|-3-3-3-2-3/10-\7---5---7---7-7-7|-3-3-3-2-3/10-\7---5---7---7-7-7|
G|--------------------------------|--------------------------------|
D|--------------------------------|--------------------------------|x2
A|--------------------------------|--------------------------------|
E|--------------------------------|--------------------------------|

E|--------------------------------|--------------------------------|
B|-3-3-3-2-3/10-\7---5---7---7-7-7|-3-3-3-2-3/10-\7---5------------|
G|--------------------------------|--------------------------------|
D|--------------------------------|-----------------------5--------|
A|--------------------------------|-----------------------5--------|
E|--------------------------------|-----------------------3--------|

E|--------------------------------|--------------------------------|
B|-3-3-3-2-3/10-\7---5---7---7-7-7|-3-3-3-2-3/10-\7---5---7---7-7-7|
G|--------------------------------|--------------------------------|
D|--------------------------------|--------------------------------|x3
A|--------------------------------|--------------------------------|
E|--------------------------------|--------------------------------|

E|--------------------------------|--------------------------------|
B|-3-3-3-2-3/10-\7---5---7---7-7-7|-3-3-3-2-3/10-\7---5------------|
G|--------------------------------|--------------------------------|
D|--------------------------------|---------------------------5-5-5|
A|--------------------------------|---------------------------5-5-5|
E|--------------------------------|---------------------------3-3-3|


Добавлено: 28.03.2012
Другие материалы по этой песне:

Страница создана 20.03.2012
http://primanota.ru/the-story-so-far/high-regard-chords.htm
Привет, Гость.
Предлагаем пройти революционный курс по гитаре.
Подарок от PrimaNota.Ru, забирай!