PrimaNota.ru - самый крупный в мире бесплатный архив песенных текстов, аккордов, табулатур и нот


The Story So Far - Four Year - таба, видео

Регистрация Запомнить меня
Войти через:  Facebook Google Twitter Vk Yandex Mail.ru

The Story So Far - Four Year - таба, видео

Печатать
Просмотров: 102
Here is a link to my cover to go along with the times shown http://youtu.be/s_6H8i1MVI4

Tuning: E Standard

0:02

e|--------------------------------------------------------------------------|
B|--------------------------------------------------------------------------|
G|--------------------------------------------------------------------------|
D|--99999-7-5--55-5555-55-5555-55-5555-55-4444------------------------------|
A|--99999-7-5--55-5555-55-5555-55-5555-55-5555------------------------------|
E|--77777-5-3--33-3333-33-3333-33-3333-33-2222------------------------------|


e|--------------------------------------------------------------------------|
B|--------------------------------------------------------------------------|
G|---------------------7--77-777--------------------------------------------|
D|--99999-7-5--55-5555-7--77-777-7-77-777-----------------------------------|
A|--99999-7-5--55-5555-5--55-555-7-77-777-----------------------------------|
E|--77777-5-3--33-3333-----------5-55-555-----------------------------------|


e|--------------------------------------------------------------------------|
B|--------------------------------------------------------------------------|
G|--------------------------------------------------------------------------|
D|--99999-7-5--55-5555-55-5555-55-5555-55-4444------------------------------|
A|--99999-7-5--55-5555-55-5555-55-5555-55-5555------------------------------|
E|--77777-5-3--33-3333-33-3333-33-3333-33-2222------------------------------|


e|--------------------------------------------------------------------------|
B|--------------------------------------------------------------------------|
G|---------------------7--77-777--------------------------------------------|
D|--99999-7-5--55-5555-7--77-777-7-77-777-----------------------------------|
A|--99999-7-5--55-5555-5--55-555-7-77-777-----------------------------------|
E|--77777-5-3--33-3333-----------5-55-555-----------------------------------|


0:23 “Greater men....”

e|--------------------------------------------------------------------------|
B|--------------------------------------------------------------------------|
G|--------------------------------------------------------------------------|
D|--55-----9-9997777--------------------------------------------------------|
A|--55-----9-9997777--------------------------------------------------------|
E|--33-----7-7775555--------------------------------------------------------|
    

0:26 “All this time....”

e|--------------------------------------------------------------------------|
B|--------------------------------------------------------------------------|
G|------------77------------------------------------------------------------|
D|--55-5-555--77-9-999--77-7-777--99-4-444----------------------------------|
A|--55-5-555--55-9-999--77-7-777--99-5-555----------------------------------|
E|--33-3-333-----7-777--55-5-555--77-2-222----------------------------------|

e|--------------------------------------------------------------------------|
B|--------------------------------------------------------------------------|
G|------------77------------------------------------------------------------|
D|--55-5-555--77-9-999--77-7-777--99-4-444-5~-------------------------------|
A|--55-5-555--55-9-999--77-7-777--99-5-555-5~-------------------------------|
E|--33-3-333-----7-777--55-5-555--77-2-222-3~-------------------------------|

0:42 “Time was short....”

e|--------------------------------------------------------------------------|
B|--------------------------------------------------------------------------|
G|--------------------------------------------------------------------------|
D|--5-5-5-5-5-5-5-5-5-5-5-5-5-5-5-5-5-5-5-5-5-5-5-5-5-5-5-5-5-5-5-5---------|
A|--5-5-5-5-5-5-5-5-5-5-5-5-5-5-5-5-5-5-5-5-5-5-5-5-5-5-5-5-5-5-5-5---------|
E|--3-3-3-3-3-3-3-3-3-3-3-3-3-3-3-3-3-3-3-3-3-3-3-3-3-3-3-3-3-3-3-3---------|
    x x x x x x x x x x x x x x x x x x x x x x x x x x x x x x x x

e|--------------------------------------------------------------------------|
B|--------------------------------------------------------------------------|
G|-----7----7----7----7----7----7----7----7---------------------------------|
D|--77-7-77-7-77-7-77-7-77-7-77-7-77-7-77-7---------------------------------|
A|--55-5-55-5-55-5-55-5-55-5-55-5-55-5-55-5---------------------------------|
E|--------------------------------------------------------------------------|
    xx   xx   xx   xx   xx   xx   xx   xx 

e|--------------------------------------------------------------------------|
B|--------------------------------------------------------------------------|
G|--------------------------------------------------------------------------|
D|--5-5-5-5-5-5-5-5-5-5-5-5-5-5-5-5-5-5-5-5-5-5-5-5-5-5-5-5-5-5-5-5---------|
A|--5-5-5-5-5-5-5-5-5-5-5-5-5-5-5-5-5-5-5-5-5-5-5-5-5-5-5-5-5-5-5-5---------|
E|--3-3-3-3-3-3-3-3-3-3-3-3-3-3-3-3-3-3-3-3-3-3-3-3-3-3-3-3-3-3-3-3---------|
    x x x x x x x x x x x x x x x x x x x x x x x x x x x

0:59 “It hits home....”

e|--------------------------------------------------------------------------|
B|--------------------------------------------------------------------------|
G|-------------------------------7777--xx-----------------------------------|
D|--5555--xx--4444--xx--7777--x--5555--xx--9999--xx--7777--x----------------|
A|--5555--xx--5555--xx--7777--x--5555--xx--9999--xx--7777--x----------------|
E|--3333--xx--2222--xx--5555--x--------xx--7777--xx--5555--x----------------|


e|--------------------------------------------------------------------------|
B|--------------------------------------------------------------------------|
G|-------------------------------7777--xx-----------------------------------|
D|--5555--xx--4444--xx--7777--x--5555--xx--9999--xx--7777--x----------------|
A|--5555--xx--5555--xx--7777--x--5555--xx--9999--xx--7777--x----------------|
E|--3333--xx--2222--xx--5555--x--------xx--7777--xx--5555--x----------------|


1:10 “All this time....”

e|--------------------------------------------------------------------------|
B|--------------------------------------------------------------------------|
G|------------77------------------------------------------------------------|
D|--55-5-555--77-9-999--77-7-777--99-4-444----------------------------------|
A|--55-5-555--55-9-999--77-7-777--99-5-555----------------------------------|
E|--33-3-333-----7-777--55-5-555--77-2-222----------------------------------|

e|--------------------------------------------------------------------------|
B|--------------------------------------------------------------------------|
G|------------77------------------------------------------------------------|
D|--55-5-555--77-9-999--77-7-777--99-4-444-5~-------------------------------|
A|--55-5-555--55-9-999--77-7-777--99-5-555-5~-------------------------------|
E|--33-3-333-----7-777--55-5-555--77-2-222-3~-------------------------------|

e|--------------------------------------------------------------------------|
B|--------------------------------------------------------------------------|
G|------------77------------------------------------------------------------|
D|--55-5-555--77-9-999--77-7-777--99-4-444----------------------------------|
A|--55-5-555--55-9-999--77-7-777--99-5-555----------------------------------|
E|--33-3-333-----7-777--55-5-555--77-2-222----------------------------------|

e|--------------------------------------------------------------------------|
B|--------------------------------------------------------------------------|
G|------------77------------------------------------------------------------|
D|--55-5-555--77-9-999--77-7-777--99-4-444-5~-------------------------------|
A|--55-5-555--55-9-999--77-7-777--99-5-555-5~-------------------------------|
E|--33-3-333-----7-777--55-5-555--77-2-222-3~-------------------------------|


1:36

e|--------------------------------------------------------------------------|
B|--------------------------------------------------------------------------|
G|---0~---------------------------------------------------------------------|
D|-------4~-----------------------------------------------------------------|
A|------------5~------------------------------------------------------------|
E|--------------------------------------------------------------------------|


e|--------------------------------------------------------------------------|
B|--------------------------------------------------------------------------|
G|--------------------------------------------------------------------------|
D|--------------------------------------------------------------------------|
A|--5555---5555---777\5----5555---5555-------7------------------------------|
E|--3333---2222---555\3----3333---2222---2/5---5\3--------------------------|
    xxxx   xxxx   xxx      xxxx   xxxx

e|--------------------------------------------------------------------------|
B|--------------------------------------------------------------------------|
G|--------------------------------------------------------------------------|
D|--------------------------------------------------------------------------|
A|--5555---5555---777\5----5555---5555-------7------------------------------|
E|--3333---2222---555\3----3333---2222---2/5---5\3--------------------------|
    xxxx   xxxx   xxx      xxxx   xxxx

e|--------------------------------------------------------------------------|
B|--------------------------------------------------------------------------|
G|--------------------------------------------------------------------------|
D|--------------------------------------------------------------------------|
A|--5555---5555---777\5----5555---5555-------7------------------------------|
E|--3333---2222---555\3----3333---2222---2/5---5\3--------------------------|
    xxxx   xxxx   xxx      xxxx   xxxx

e|--------------------------------------------------------------------------|
B|--------------------------------------------------------------------------|
G|--------------------------------------------------------------------------|
D|--------------------------------------------------------------------------|
A|--5555---5555---777\5----5555---5555-------7------------------------------|
E|--3333---2222---555\3----3333---2222---2/5---5\3--------------------------|
    xxxx   xxxx   xxx       xx    xx 


2:10

e|--------------------------------------------------------------------------|
B|--------------------------------------------------------------------------|
G|----------------------7777-7----------------------------------------------|
D|--5555-5-4444-4-7777--7777-7-9999-9-7777-7--------------------------------|
A|--5555-5-5555-5-7777--5555-5-9999-9-7777-7--------------------------------|
E|--3333-3-2222-2-5555---------7777-7-5555-5--------------------------------|


e|--------------------------------------------------------------------------|
B|--------------------------------------------------------------------------|
G|----------------------7777------------------------------------------------|
D|--5555-5-4444-4-7777--7777--9999--7777--5~--------------------------------|
A|--5555-5-5555-5-7777--5555--9999--7777--5~--------------------------------|
E|--3333-3-2222-2-5555--------7777--5555--3~--------------------------------|
    
Добавлено: 19.07.2013
Другие материалы по этой песне:
  • Аккорды и текст

Страница создана 19.07.2013
http://primanota.ru/the-story-so-far/four-year-chords.htm
Привет, Гость.
Предлагаем пройти революционный курс по гитаре.
Подарок от PrimaNota.Ru, забирай!