PrimaNota.ru - самый крупный в мире бесплатный архив песенных текстов, аккордов, табулатур и нот


The Story So Far - Closure - таба, видео

Регистрация Запомнить меня
Войти через:  Facebook Google Twitter Vk Yandex Mail.ru

The Story So Far - Closure - таба, видео

Печатать
Просмотров: 115
Авторы: The Story So Far

----------------------------------------------------------------------------
                           Closure - The Story So Far
-----------------------------------------------------------------------------

Tabbed by: x3ricxblink182

Email: x3ricxblink182@aim.com

Tuning: Drop D

http://www.myspace.com/thestorysofarca


Intro:

E|----------------|
B|-0--0-0-0--0-0--|
G|-4/1111-6/-8-8--|
D|----------------|
A|----------------|
E|----------------| x4

E|------------------------------------|
B|------------------------------------|
G|------8-8-------8-8-----------------|
D|-2-2--x-x--2-2--x-x--666666-444444--|
A|-2-2-/6-6--2-2-/6-6--666666-444444--|
E|-2-2-------2-2-------666666-444444--|

E|------------------------------------|
B|------------------------------------|
G|-1111--8-8-1111--8-8--888888-666666-|
D|--x-x--x-x--x-x--x-x--666666-444444-|
A|--9-9-/6-6--9-9-/6-6--666666-444444-|
E|----------------------666666-444444-| x3


Verse:
E|----------------|
B|-0--0-0-0--0-0--|
G|-4/1010-6/-8-8--|
D|--------8--9-9--|
A|----------------|
E|----------------| x4

E|------------------------------------|
B|------------------------------------|
G|------------------------------------|
D|-2-xxxx-2-2-xxxx-2-6-xxxx-6-4-xxxx--|
A|-2-xxxx-2-2-xxxx-2-6-xxxx-6-4-xxxx--|
E|-0-xxxx-0-0-xxxx-0-4-xxxx-4-2-xxxx--| x4

E|--------------------|
B|--------------------|
G|-88-88-66-66-6-44---|
D|-xx-xx-xx-xx-x-xx---|
A|-66-66-44-44-4/22---|
E|--------------------| x4

E|---------------------|
B|---------------------|
G|-88-88-1111-66-666---|
D|-xx-xx--x-x-xx-xxx---|
A|-66-66--9-9-44-444-/-|
E|---------------------| x4

E|------------------------------------|
B|------------------------------------|
G|------8-8-------8-8-----------------|
D|-2-2--x-x--2-2--x-x--666666-444444--|
A|-2-2-/6-6--2-2-/6-6--666666-444444--|
E|-0-0-------0-0-------444444-222222--|

E|-------|
B|-------|
G|-------|
D|-2~~~--|
A|-2~~~--|
E|-0~~~--|


Pre-chorus:

E|---------------------|
B|---------------------|
G|--8-8-8-8-6-6-333-4--|
D|--x-x-x-x-x-x-xxx-x--|
A|--6-6-6-6-4-4-111/2--|
E|---------------------| x4

E|----------------|
B|-0--0-0-0--0-0--|
G|-4/1010-6/-8-8--|
D|----------------|
A|----------------|
E|----------------|


Chorus:

E|----------------------------------------|
B|----------------------------------------|
G|-44444--9-888-444--66666--9-888--1111---|
D|-xxxxx--x-xxx-xxx--xxxxx--x-xxx---xxx---|
A|-22222-/7-666-222--44444-/7-666-//999---|
E|----------------------------------------| x4

E|-------|
B|-------|
G|-------|
D|-2~~~--|
A|-2~~~--|
E|-0~~~--|

E|----------|
B|----------|
G|--6-4~~~--|
D|--x-x~~~--|
A|--4\2~~~--|
E|----------|



Bridge:
E|-------------|
B|-------------|
G|-------------|
D|-222-222222--|
A|-222-222222--|
E|-000-000000--| x2

E|-------------|
B|-0-0-0-0~~---|
G|-4-6-8-4~~---|
D|-------------|
A|-------------|
E|-------------|

E|-------------|
B|-0-0-0-0~~---|
G|-4-6-3-4~~---|
D|-------------|
A|-------------|
E|-------------|

Outro:

E|----------------|
B|-0-0-0-0-0-0-0--|
G|-4-6-8-3-3-3/4--|
D|----------------|
A|----------------|
E|----------------| x14

E|-------------|
B|--0~~--0-0---|
G|--4~~--6/8---|
D|-------------|
A|-------------|
E|-------------|

End on:

E|----------|
B|--0~~~~---|
G|-11~~~~---|
D|--9~~~~---|
A|----------|
E|----------|
Добавлено: 29.06.2012
Другие материалы по этой песне:

Страница создана 29.06.2012
http://primanota.ru/the-story-so-far/closure-chords.htm
Привет, Гость.
Предлагаем пройти революционный курс по гитаре.
Подарок от PrimaNota.Ru, забирай!