PrimaNota.ru - самый крупный в мире бесплатный архив песенных текстов, аккордов, табулатур и нот


The Stooges - Shake Appeal - аккорды и текст, видео

Регистрация Запомнить меня
Войти через:  Facebook Google Twitter Vk Yandex Mail.ru

The Stooges - Shake Appeal - аккорды и текст, видео

Печатать
Просмотров: 131
Уроки эстрадного вокала в Санкт-Петербурге
Shake Appeal
The Stooges
Main riff
[e----------------------------------------------------------------
B----------------------------------------------------------------
G--------------------3333----------------------------------------
D--3-33---------1-x3-3333----------------------------------------
A--3-33-----1-3------1111----------------------------------------
E--1-11-1-3------------------------------------------------------]

A little lick that is present every now and then
[e-----------------------------------------------------------------------
B-----------------------------------------------------------------------
G-33--------------------------------------------------------------------
D-33--------------------------------------------------------------------
A-11-3431---------------------------------------------------------------
E-----------------------------------------------------------------------]

Repeat that a lot of times
Добавлено: 14.12.2015
Другие материалы по этой песне:
  • Аккорды и текст

Страница создана 22.04.2012
http://primanota.ru/the-stooges/shake-appeal-chords.htm
Привет, Гость.
Предлагаем пройти революционный курс по гитаре.
Подарок от PrimaNota.Ru, забирай!