PrimaNota.ru - самый крупный в мире бесплатный архив песенных текстов, аккордов, табулатур и нот


The Stooges - The Passenger - аккорды и текст, видео

Регистрация Запомнить меня
Войти через:  Facebook Google Twitter Vk Yandex Mail.ru

The Stooges - The Passenger - аккорды и текст, видео

Печатать
Просмотров: 81
The Passenger
The Stooges
Tuning: Normal

Main riff:	
[e--0--0--0-----1--1--1-----0--0--0-----3--3--3--------------------
B--1--1--1--x--1--1--1-----1--1--1--x--3--3--3--------------------
G--2--2--2--x--2--2--2--x--0--0--0--x--0--0--0--------------------
D--2--2--2--x--3--3--3--x--2--2--2--x--0--0--0--------------------
A--0--0--0-----3--3--3-----3--3--3-----2--2--2--------------------
E--------------1--1--1-----------------3--3--3--------------------

e--0--0--0----0--0--0-----------------------------------------------
B--1--1--1----0--0--0-----------------------------------------------
G--0--0--0----1--1--1-----------------------------------------------
D--2--2--2----2--2--2-----------------------------------------------
A--3--3--3----2--2--2-----------------------------------------------
E-------------0--0--0-----------------------------------------------]
Добавлено: 14.12.2015
Другие материалы по этой песне:
  • Аккорды и текст

Страница создана 14.12.2015
http://primanota.ru/the-stooges/passenger-chords.htm
Привет, Гость.
Предлагаем пройти революционный курс по гитаре.
Подарок от PrimaNota.Ru, забирай!