PrimaNota.ru - самый крупный в мире бесплатный архив песенных текстов, аккордов, табулатур и нот


The Spirit Of Versailles - One - бас-таба, видео

Регистрация Запомнить меня
Войти через:  Facebook Google Twitter Vk Yandex Mail.ru

The Spirit Of Versailles - One - бас-таба, видео

Печатать
Просмотров: 66
SPIRIT OF VERSAILLES - ONE

http://www.facebook.com/thespiritofversailles

---------------------------------------------------------------------------

G|-------------------------------------------------------------------------|
D|-4-4-4-4-4-4-4-4-4-2-2-2-2-1-1h2p1-1-1-1-1-1-1-1-1-1-1-2-2-2-2-2-1-1h2p1-|
A|-------------------------------------------------------------------------|
E|-------------------------------------------------------------------------|

G|-------------------------------------------------------------------------|
D|-------------------------------------------------------------------------|
A|-1-1-1-1-1-1-1-1-1-2-2-2-1-1-1-2-2-2-2-2-2-2-2-2-2-4-4-4-4-4-4-4-4-2-2-2-|
E|-------------------------------------------------------------------------|

play x4
----------------------------------------------------------------------------

G|-----------------------------------------------------------|
D|-------------------6--4------------------------------------|
A|-------------------------4-6-6-6-6-6-6---------------------| x6
E|-6-6-6-6-6-6-7-7-7---------------------6-6-6-6-6h7-6-6-6-6-|

just guitar for a bit

G|--------------------------|
D|--------------------------|
A|--------9-9-9-6-6-6-6-6-6-|
E|-6-6-6--------------------|

G|---------- x2 -----------|----------- x2 ----------|
D|-------------------------|-------------------------|
A|-9-9-9-9-9-9-------------|-------9-9-9-6-6-6-6-6-6-| x3
E|-------------9-9-9-9-9-9-|-6-6-6-------------------|
Добавлено: 07.10.2013
Другие материалы по этой песне:
  • Аккорды и текст

Страница создана 07.10.2013
http://primanota.ru/the-spirit-of-versailles/one-chords.htm
Привет, Гость.
Предлагаем пройти революционный курс по гитаре.
Подарок от PrimaNota.Ru, забирай!